Anderson Headley Clean Guitar Riffs

01234567891011121314151617181920212223
E
B
G
D
A
E
B
0 1 2 3 4 5 6 7 8 9 10 11 12 13 14 15 16 17 18 19 20 21 22 23
(/) Slide Up  (\) Slide Down  (h) Hammer On  (p) Pull Off  (b) Bend (r) Release (v) Vibrato

Stave 1:

E|-----------------------------------------------------------------------------------2-----------------2-----------------2-----------------2-----------
B|-----------3-----------------3-----------------3-----------------3--------------3-----3-----------3-----3-----------3-----3-----------3-----3--------
G|--------0-----0-----------0-----0-----------0-----0-----------0-----0--------------------------------------------------------------------------------
D|-----4-----------4-----4-----------4-----4-----------4-----4-----------4-----4-----------4-----4-----------4-----4-----------4-----4-----------4-----
A|--2-----------------2-----------------2-----------------2-----------------2-----------------2-----------------2-----------------2-----------------2--
E|-----------------------------------------------------------------------------------------------------------------------------------------------------

Stave 2:

E|--0--0-----2--------2--3--2h3p2p0--0--0-----2--------2--3--5--3p2h3p2p0--
B|--0-----0-----0--------------------0-----0-----0-------------------------
G|--0--------------0-----------------0--------------0----------------------
D|--2--------------------------------2-------------------------------------
A|--2--------------------------------2-------------------------------------
E|--0--------------------------------0-------------------------------------

							http://www.guitartabcreator.com
Chords

Tab Notes
One of my B scale Clean riffs This is my 2nd clean riff made
genre
Instruments
{"strings":[[[".",".",".",".",".",".",".",".",".",".",".",".",".",".",".",".",".",".",".",".",".",".",".",".",".",".",".",2,".",".",".",".",".",2,".",".",".",".",".",2,".",".",".",".",".",2,".",".","."],[".",".",".",3,".",".",".",".",".",3,".",".",".",".",".",3,".",".",".",".",".",3,".",".",".",".",3,".",3,".",".",".",3,".",3,".",".",".",3,".",3,".",".",".",3,".",3,".","."],[".",".",0,".",0,".",".",".",0,".",0,".",".",".",0,".",0,".",".",".",0,".",0,".",".",".",".",".",".",".",".",".",".",".",".",".",".",".",".",".",".",".",".",".",".",".",".",".","."],[".",4,".",".",".",4,".",4,".",".",".",4,".",4,".",".",".",4,".",4,".",".",".",4,".",4,".",".",".",4,".",4,".",".",".",4,".",4,".",".",".",4,".",4,".",".",".",4,"."],[2,".",".",".",".",".",2,".",".",".",".",".",2,".",".",".",".",".",2,".",".",".",".",".",2,".",".",".",".",".",2,".",".",".",".",".",2,".",".",".",".",".",2,".",".",".",".",".",2],[".",".",".",".",".",".",".",".",".",".",".",".",".",".",".",".",".",".",".",".",".",".",".",".",".",".",".",".",".",".",".",".",".",".",".",".",".",".",".",".",".",".",".",".",".",".",".",".","."]],[[0,0,".",2,".",".",2,3,2,"h",3,"p",2,"p",0,0,0,".",2,".",".",2,3,5,3,"p",2,"h",3,"p",2,"p",0],[0,".",0,".",0,".",".",".",".",".",".",".",".",".",".",0,".",0,".",0,".",".",".",".",".",".",".",".",".",".",".",".","."],[0,".",".",".",".",0,".",".",".",".",".",".",".",".",".",0,".",".",".",".",0,".",".",".",".",".",".",".",".",".",".",".","."],[2,".",".",".",".",".",".",".",".",".",".",".",".",".",".",2,".",".",".",".",".",".",".",".",".",".",".",".",".",".",".",".","."],[2,".",".",".",".",".",".",".",".",".",".",".",".",".",".",2,".",".",".",".",".",".",".",".",".",".",".",".",".",".",".",".","."],[0,".",".",".",".",".",".",".",".",".",".",".",".",".",".",0,".",".",".",".",".",".",".",".",".",".",".",".",".",".",".",".","."]]],"numberofstrings":6,"notes":["E","B","G","D","A","E","B"],"capo":0,"stringnotes":["E4","B3","G3","D3","A2","E2"],"comments":["Stave 1:","Stave 2:"],"timing":[["W","W","W","W","W","W","W","W","W","W","W","W","W","W","W","W","W","W","W","W","W","W","W","W","W","W","W","W","W","W","W","W","W","W","W","W","W","W","W","W","W","W","W","W","W","W","W","W","W"],["W","W","W","W","W","W","W","W","W",null,"W",null,"W",null,"W","W","W","W","W","W","W","W","W","W","W",null,"W",null,"W","W","W",null,"W"]],"timingvisible":false,"tabcounter":33,"stave":1,"totalstaves":2,"instrument":"6guitar","selectedtuning":"6_standard","version":"13"}

Member for

9 months 2 weeks
Submitted by buddyheadley06 on Thu, 2021-04-08 19:20