Freddy Crabs

Chords

01234567891011121314151617181920212223
E
B
G
D
A
E
B
0 1 2 3 4 5 6 7 8 9 10 11 12 13 14 15 16 17 18 19 20 21 22 23
(/) Slide Up  (\) Slide Down  (h) Hammer On  (p) Pull Off  (b) Bend (r) Release (v) Vibrato

Stave 1:

E|----------------------------------------------------------------------------------------------------------------------
B|----------------------------------------------------------------------------------------------------------------------
G|-------5--7--5--7b9-----------9--9--9--9--9--9r7--7--7----------------------------------------------------------5-----
D|--5h7-----------------------------------------------------------------------------------------5-----5/7--7v--------7--
A|-------------------------------------------------------------------3--5--3--5b7r5-----3--5/7-----7-----------7--------
E|--------------------------------------------------------------3h5-----------------------------------------------------

Stave 2:

E|------------------------------------------------------------------------------
B|------------------8-----------8----------8----8--8--8--8--8-8--8--8---------
G|-----5--7p5--7b9-----7b9r7h5--7b9--------7b9--9--9--9--9--9r7--7--7v--------
D|--7---------------------------------------------------------------------------
A|------------------------------------------------------------------------------
E|------------------------------------------------------------------------------

Stave 3:

E|--12--12--12--10--10--10--8---8---8----------
B|--13--13--13--12--12--12--10--10--10---------
G|--------------------------------------9v-----
D|---------------------------------------------
A|---------------------------------------------
E|---------------------------------------------

Stave 4:

E|------------------------------------------8--10b12r10p8------------------
B|--10p8--10--10p8--10--10p8--10--10p8--10-----------------10p8--10--10p8--
G|-------------------------------------------------------------------------
D|-------------------------------------------------------------------------
A|-------------------------------------------------------------------------
E|-------------------------------------------------------------------------

							http://www.guitartabcreator.com
Tab Notes
Repeat Stave 3 x2
Instruments
{"strings":[[[".",".",".",".",".",".",".",".",".","_","_","_",".",".",".",".",".",".",".",".",".",".","_","_",".",".",".",".",".",".",".",".",".",".",".","_",".",".",".",".",".",".",".",".",".",".",".",".",".","."],[".",".",".",".",".",".",".",".",".","_","_","_",".",".",".",".",".",".",".",".",".",".","_","_",".",".",".",".",".",".",".",".",".",".",".","_",".",".",".",".",".",".",".",".",".",".",".",".",".","."],[".",".",".",5,7,5,7,"b",9,"_","_","_",9,9,9,9,9,9,"r",7,7,7,"_","_",".",".",".",".",".",".",".",".",".",".",".","_",".",".",".",".",".",".",".",".",".",".",".",".",5,"."],[5,"h",7,".",".",".",".",".",".","_","_","_",".",".",".",".",".",".",".",".",".",".","_","_",".",".",".",".",".",".",".",".",".",".",".","_",".",".",".",".",5,".",5,"/",7,7,"v",".",".",7],[".",".",".",".",".",".",".",".",".","_","_","_",".",".",".",".",".",".",".",".",".",".","_","_",".",".",".",3,5,3,5,"b",7,"r",5,"_",3,5,"/",7,".",7,".",".",".",".",".",7,".","."],[".",".",".",".",".",".",".",".",".","_","_","_",".",".",".",".",".",".",".",".",".",".","_","_",3,"h",5,".",".",".",".",".",".",".",".","_",".",".",".",".",".",".",".",".",".",".",".",".",".","."]],[[".",".",".",".",".",".",".",".",".",".",".",".",".",".",".",".",".",".",".","_","_","_",".",".",".",".",".",".",".",".",".",".",".",".","_","_"],[".",".",".",".",".",".",".",".",8,".",".",".",".",".",".",".",8,".",".","_","_",8,".",".",8,8,8,8,8,".",8,8,8,".","_","_"],[".",5,7,"p",5,7,"b",9,".",7,"b",9,"r",7,"h",5,7,"b",9,"_","_",7,"b",9,9,9,9,9,9,"r",7,7,7,"v","_","_"],[7,".",".",".",".",".",".",".",".",".",".",".",".",".",".",".",".",".",".","_","_","_",".",".",".",".",".",".",".",".",".",".",".",".","_","_"],[".",".",".",".",".",".",".",".",".",".",".",".",".",".",".",".",".",".",".","_","_","_",".",".",".",".",".",".",".",".",".",".",".",".","_","_"],[".",".",".",".",".",".",".",".",".",".",".",".",".",".",".",".",".",".",".","_","_","_",".",".",".",".",".",".",".",".",".",".",".",".","_","_"]],[[12,12,12,10,10,10,8,8,8,".",".","_"],[13,13,13,12,12,12,10,10,10,".",".","_"],[".",".",".",".",".",".",".",".",".",9,"v","_"],[".",".",".",".",".",".",".",".",".",".",".","_"],[".",".",".",".",".",".",".",".",".",".",".","_"],[".",".",".",".",".",".",".",".",".",".",".","_"]],[[".",".",".",".",".",".",".",".",".",".",".",".",".",".",".",".",8,10,"b",12,"r",10,"p",8,".",".",".",".",".",".","."],[10,"p",8,10,10,"p",8,10,10,"p",8,10,10,"p",8,10,".",".",".",".",".",".",".",".",10,"p",8,10,10,"p",8],[".",".",".",".",".",".",".",".",".",".",".",".",".",".",".",".",".",".",".",".",".",".",".",".",".",".",".",".",".",".","."],[".",".",".",".",".",".",".",".",".",".",".",".",".",".",".",".",".",".",".",".",".",".",".",".",".",".",".",".",".",".","."],[".",".",".",".",".",".",".",".",".",".",".",".",".",".",".",".",".",".",".",".",".",".",".",".",".",".",".",".",".",".","."],[".",".",".",".",".",".",".",".",".",".",".",".",".",".",".",".",".",".",".",".",".",".",".",".",".",".",".",".",".",".","."]]],"numberofstrings":6,"notes":["E","B","G","D","A","E","B"],"capo":0,"stringnotes":["E4","B3","G3","D3","A2","E2"],"comments":["Stave 1:","Stave 2:","Stave 3:","Stave 4:"],"timing":[[null,null,null,null,null,null,null,null,null,null,null,null,null,null,null,null,null,null,null,null,null,null,null,null,null,null,null,null,null,null,null,null,null,null,null,null,null,null,null,null,null,null,null,null,null,null,null,null,null,null],["W","W","W","W","W","W",null,"W","W","W",null,"W",null,"W",null,"W","W",null,"W",null,null,"W","W","W","W","W","W","W","W","W","W","W","W",null,null,null,"W"],["W","W","W","W","W","W","W","W","W","W"],["W",null,"W","W","W",null,"W","W","W",null,"W","W","W",null,"W","W","W","W",null,"W",null,"W",null,"W","W",null,"W","W","W",null,"W","W"]],"timingvisible":false,"tabcounter":31,"stave":3,"totalstaves":4,"instrument":"6guitar","selectedtuning":"6_standard","version":"13"}

Member for

1 month 1 week
Submitted by buddle130 on Tue, 2020-09-22 03:53