Sound will begin in 5 seconds

Eclipse

Chords
01234567891011121314151617181920212223
E
B
G
D
A
E
B
0 1 2 3 4 5 6 7 8 9 10 11 12 13 14 15 16 17 18 19 20 21 22 23
Song Science #1: How Pros Use 6 Chords to Write Hit Songs
(/) Slide Up  (\) Slide Down  (h) Hammer On  (p) Pull Off  (b) Bend (r) Release (v) Vibrato

Stave 1:

E|-----------0-----------0--------------0--------------0-----
B|--------3-----------3-----3--------6-----6--------6-----6--
G|-----2-----------3-----------------------------7-----------
D|--0-----------------------------3--------------------------
A|--------------1-----------------------------0--------------
E|-----------------------------0-----------------------------

Stave 2:

E|-----------0--------------0--------------0---------------0------
B|--------3-----3--------3-----3--------6-----6--------10-----10--
G|-----2--------------3--------------3--------------7-------------
D|--0-------------------------------------------------------------
A|-----------------1-----------------------------0----------------
E|--------------------------------0-------------------------------

Stave 3:

E|-----------5--3--1--0-----1--0-----1--0-----------0--1--0-----1--0-----
B|--------5-----2--------3--------3--------3--2--3-----------3--------3--
G|-----6-----------------------------------------------------------------
D|-----------------0-----------------------------------0-----------------
A|--0-----------------------1-----------------0-----------------1--------
E|-----------------------------------0-----------------------------------

Stave 4:

E|--3--1--0--1--0-----1--0-----1--0-----1--0-----------0--1--0-----1--0-----
B|-----------------2--------3--------3--------3--2--3-----------3--------3--
G|--------------------------------------------------------------------------
D|--------------------0-----------------------------------0-----------------
A|-----------0-----------------1-----------------0-----------------1--------
E|--0-----------------------------------0-----------------------------------

Stave 5:

E|--3--1--0--1--0--------------0--------------0--------------0--------------0-----
B|-----------------2--------3-----3--------3-----3--------6-----6--------6-----6--
G|-----------------------2--------------3--------------3--------------7-----------
D|--------------------0-----------------------------------------------------------
A|-----------0-----------------------0-----------------------------0--------------
E|--0-----------------------------------------------0-----------------------------

Stave 6:

E|-----------0--------------0--------------0---------------0---------------5--3--
B|--------3-----3--------3-----3--------6-----6--------10-----10--------5-----2--
G|-----2--------------3--------------3--------------7----------------6-----------
D|--0----------------------------------------------------------------------------
A|-----------------1-----------------------------0----------------0--------------
E|--------------------------------0----------------------------------------------

Stave 7:

E|--1--0-----1--0-----1--0-----------0--1--0-----1--0-----3--1--0--1--0-----1--0-----
B|--------3--------3--------3--2--3-----------3--------3-----------------2--------3--
G|-----------------------------------------------------------------------------------
D|--0-----------------------------------0-----------------------------------0--------
A|-----------1-----------------0-----------------1-----------------0-----------------
E|--------------------0-----------------------------------0--------------------------

Stave 8:

E|--1--0-----------0--1--0-----1--0-----3--1--0--1--0--------------
B|--------3--2--3-----------3--------3-----------------2--3--------
G|--------------------------------------------------------2--------
D|--------------------0-----------------------------------0-----0--
A|-----------0-----------------1-----------------0-----------0-----
E|--0-----------------------------------0--------------------------

http://www.guitartabcreator.com
Guitar Tab Creator is intended to store guitar tab created through the tool. It currently does not support in-line text editing. Any text you place in here will be lost. If you need to comment on your tab, please use the "Tab Notes" section located below.