Sound will begin in 5 seconds

the wheel boston 77 end solo part 2

01234567891011121314151617181920212223
E
B
G
D
A
E
B
0 1 2 3 4 5 6 7 8 9 10 11 12 13 14 15 16 17 18 19 20 21 22 23
Song Science #1: How Pros Use 6 Chords to Write Hit Songs
(/) Slide Up  (\) Slide Down  (h) Hammer On  (p) Pull Off  (b) Bend (r) Release (v) Vibrato

Stave 1:

E|--------------------------13--12----------12--13--15/17--14h15------19------22--19------
B|----------------------------------15--15------------------------17------20----------20--
G|--11--------------12--14----------------------------------------------------------------
D|------12--14--15------------------------------------------------------------------------
A|----------------------------------------------------------------------------------------
E|----------------------------------------------------------------------------------------

Stave 2:

E|-------------------------------------------------------------------------------------------------
B|--22--19--20------19----------19--20--22--19-----------------------------------------------------
G|--------------21------20--21---------------------------------16--17\16--16--14--14--14p13p12p11--
D|----------------------------------------------19--21--22-----------------------------------------
A|-------------------------------------------------------------------------------------------------
E|-------------------------------------------------------------------------------------------------

Stave 3:

E|--------------------------------------------------------------------------------------------------
B|------------5-------------------------------------------------------------------------------------
G|--11--11\6-----7--4h6-----4--------4-----------4--------4--------------------------------4--7--6--
D|-----------------------7--------7-----7--5--7-----5--7-----5-----4-----4--5-----4--5--7-----------
A|-----------------------------0--------------------------------7--------------7--------------------
E|--------------------------------------------------------------------------------------------------

Stave 4:

E|--------------------------------------------------------------------------------------------------
B|--------------------------------------------------------------------------------------------------
G|-----4--------4--------------------------4--7--6-----4--------4-----------------------------------
D|--7-----5--7-----5-----4--------4--5--7-----------7-----5--7-----5-----4--------4-----------------
A|--------------------7-----5--7--------------------------------------7-----5--7-----5-----4--------
E|--------------------------------------------------------------------------------------7-----5--7--

Stave 5:

E|--------------------------------------------------------------12--------------------------------
B|-----------------------------------------11/12--12/14v------------13b15r13--------------12--14--
G|-----------------14--11--12------11--12-------------------------------------14--12--14----------
D|---------11--14--------------14-----------------------------------------------------------------
A|--7/12v-----------------------------------------------------------------------------------------
E|------------------------------------------------------------------------------------------------

Stave 6:

E|----------------------------------------------------------------------------
B|--15p14p12h14------12--14--15p14p12------12--14--15--14p12------12--14--15--
G|---------------14--------------------14---------------------14--------------
D|----------------------------------------------------------------------------
A|----------------------------------------------------------------------------
E|----------------------------------------------------------------------------

Stave 7:

E|-----------------------------------------------------------------------------------------------------
B|--15--14p12------12----------12------------------12----------------------------------------------12--
G|-------------14------12--14------14------12--14------14--12------12--14--14--14--12------12--14------
D|-------------------------------------14----------------------14----------------------14--------------
A|-----------------------------------------------------------------------------------------------------
E|-----------------------------------------------------------------------------------------------------

Stave 8:

E|-----------------11-----15--14--12------12---------12---------------------------------------------
B|--14--15p14--15---------------------15---------15------15--14--12------12-------------------------
G|-------------------------------------------------------------------14------14--12------12---------
D|-----------------------------------------------------------------------------------14------13h14--
A|--------------------------------------------------------------------------------------------------
E|--------------------------------------------------------------------------------------------------

Stave 9:

E|---------------------------------------------------------------------------------------------------
B|--------------12--13--14--15p14--12------12--------------------------------------------------------
G|--12--13--14-------------------------14------14--12------------12----------------------------------
D|-----------------------------------------------------14p13h14------14--13--12----------11--12--14--
A|-------------------------------------------------------------------------------12--14--------------
E|---------------------------------------------------------------------------------------------------

Stave 10:

E|-------------------------------------------------------------------------------------------------------
B|--17--14--15------14-----------------------------------------------------------------------------------
G|--------------16------16--14------14--11--12------11------------------9--------------------------------
D|------------------------------14--------------14------12--14--11--12-----11------9----------9----------
A|-----------------------------------------------------------------------------12-----10--12-----10------
E|---------------------------------------------------------------------------------------------------12--

Stave 11:

E|--------------------------------------------------------------------------------------------------
B|--------------------------------------------------------------------------------------------------
G|------------------------------------------------12--11--------------------------------------------
D|------------------------------------11--12--14----------12--14--11--12--14--11------9----------9--
A|--9-----------------10--11--12--14----------------------------------------------12-----10--12-----
E|-----10--12-----12--------------------------------------------------------------------------------

Stave 12:

E|-------------------------------------------------------------------------------------------------------
B|-------------------------------------------------------------------------------------------------------
G|-----------------------------------------------------------9--12--11------9----------9-----------------
D|------------------------------------------------9--11--12-------------12-----11--12-----11------9--11--
A|--10------9----------9--10--12--12p10p9h10--12----------------------------------------------12---------
E|------12-----10--12------------------------------------------------------------------------------------

Stave 13:

E|-----------------------------------------------
B|-------------------------------------------10--
G|-----------------------------------------------
D|------9----------9---------------------12------
A|--12-----10--12-----10------9------------------
E|------------------------12-----10--12----------

http://www.guitartabcreator.com
Guitar Tab Creator is intended to store guitar tab created through the tool. It currently does not support in-line text editing. Any text you place in here will be lost. If you need to comment on your tab, please use the "Tab Notes" section located below.