Sound will begin in 5 seconds

the wheel boston 77 end solo

01234567891011121314151617181920212223
E
B
G
D
A
E
B
0 1 2 3 4 5 6 7 8 9 10 11 12 13 14 15 16 17 18 19 20 21 22 23
Song Science #1: How Pros Use 6 Chords to Write Hit Songs
(/) Slide Up  (\) Slide Down  (h) Hammer On  (p) Pull Off  (b) Bend (r) Release (v) Vibrato

Stave 1:

E|---------------------------------14-----12--------------------------------------------------
B|--14-----14--15--14--12------12-------------14--12--------------12----------------------12--
G|-------------------------14-------------------------14--12--14------14--12------12--14------
D|----------------------------------------------------------------------------14--------------
A|--------------------------------------------------------------------------------------------
E|--------------------------------------------------------------------------------------------

Stave 2:

E|----------------------------------------------------------------------------------------------------
B|----------------------12---------------------12--12------------------12---------------------12------
G|--14--12------12--14------14p12------12--14----------14------12--14------14---------12--14------14--
D|----------14---------------------14----------------------14---------------------14------------------
A|----------------------------------------------------------------------------------------------------
E|----------------------------------------------------------------------------------------------------

Stave 3:

E|------------------------------------------------------------------------------------
B|------------------12--14p12--12/13--12--15v-----15/17v--15v-------------15--14v-----
G|----------12--14------------------------------------------------16--16--------------
D|--14--14----------------------------------------------------------------------------
A|------------------------------------------------------------------------------------
E|------------------------------------------------------------------------------------

Stave 4:

E|-------------------------------------------------------------------------------------------------
B|--17----------15--14------17--15--14---------------------------------------------------------12--
G|------14--16----------14--------------16--14--16--14--12------12--14-----14--12------12--14------
D|----------------------------------------------------------14---------------------14--------------
A|-------------------------------------------------------------------------------------------------
E|-------------------------------------------------------------------------------------------------

Stave 5:

E|------------------------------------------------------------------------------------------------------
B|-------------------------------------12---------------------------------------------------------------
G|--14--12-------------12------12--14------14--12------------12-------------------------------------12--
D|----------14--13h14------14----------------------14p13h14------14p12------12----------12--13--14------
A|----------------------------------------------------------------------14------13--14------------------
E|------------------------------------------------------------------------------------------------------

Stave 6:

E|----------------------------------------------------------------------------------------------------
B|----------------------------------------------------------------------------------------------------
G|--14--15-----16--15--14-----------------------------------------------------------------------------
D|-------------------------16--14--16--17------14--13--14--16--14--12------11--12p11------11----------
A|-----------------------------------------14--------------------------14-------------14------12--14--
E|----------------------------------------------------------------------------------------------------

Stave 7:

E|--
B|--
G|--
D|--
A|--
E|--

http://www.guitartabcreator.com
Guitar Tab Creator is intended to store guitar tab created through the tool. It currently does not support in-line text editing. Any text you place in here will be lost. If you need to comment on your tab, please use the "Tab Notes" section located below.