Sound will begin in 5 seconds

the wheel boston 77

01234567891011121314151617181920212223
E
B
G
D
A
E
B
0 1 2 3 4 5 6 7 8 9 10 11 12 13 14 15 16 17 18 19 20 21 22 23
Song Science #1: How Pros Use 6 Chords to Write Hit Songs
(/) Slide Up  (\) Slide Down  (h) Hammer On  (p) Pull Off  (b) Bend (r) Release (v) Vibrato

Stave 1:

E|--------------------------------------------------------------12--12--12--12--12h13p12----------12--
B|-------------------------5h6p5-----5--6p5--6/8--8-----12--14----------------------------13--15------
G|-------------------5--7---------7-------------------------------------------------------------------
D|-------5-----7--------------------------------------------------------------------------------------
A|--5/7-----------------------------------------------------------------------------------------------
E|----------------------------------------------------------------------------------------------------

Stave 2:

E|----------------------------------------------------------------------------------------------------
B|------12--13-------------------------------------------------12--13--15--13p12------12--13----------
G|--14----------14p12----------------------------------12--14---------------------14------------------
D|---------------------14--14--------------15--12--14-------------------------------------------------
A|-----------------------------15------15-------------------------------------------------------------
E|---------------------------------15---------------------------------------------------------15--15--

Stave 3:

E|---------------------------------------12-----------------------------------------------------------
B|--------------12--13--15p13p12h13--15---------15--13--12------12--------------------------------12--
G|--11--12--14----------------------------------------------14------14------12h14p12------12--14------
D|----------------------------------------------------------------------14------------14--------------
A|----------------------------------------------------------------------------------------------------
E|----------------------------------------------------------------------------------------------------

Stave 4:

E|--------------------------------------------------------------------------------------------7h8p7------
B|-------------------------------------------------------------------------------------8--10---------10--
G|--14p12--------------------------9--------------------------9------------------7--9--------------------
D|---------14--12--12--12--10--12--------------------------------10-----10p9h10--------------------------
A|---------------------------------------9--10--7--10--9--10---------------------------------------------
E|-------------------------------------------------------------------------------------------------------

Stave 5:

E|--7----------------------
B|-----10--8--10--8--------
G|-------------------9--9--
D|-------------------------
A|-------------------------
E|-------------------------

http://www.guitartabcreator.com
Guitar Tab Creator is intended to store guitar tab created through the tool. It currently does not support in-line text editing. Any text you place in here will be lost. If you need to comment on your tab, please use the "Tab Notes" section located below.