Sound will begin in 5 seconds

wharf rat part 2

01234567891011121314151617181920212223
E
B
G
D
A
E
B
0 1 2 3 4 5 6 7 8 9 10 11 12 13 14 15 16 17 18 19 20 21 22 23
Song Science #1: How Pros Use 6 Chords to Write Hit Songs
(/) Slide Up  (\) Slide Down  (h) Hammer On  (p) Pull Off  (b) Bend (r) Release (v) Vibrato

Stave 1:

E|--21--20--19--18--17---------17--17------19--17--------------------------------------------
B|----------------------18/19----------20----------20---------20--17-------------------------
G|-----------------------------------------------------21\19----------19--17h18------17--18--
D|-------------------------------------------------------------------------------19----------
A|-------------------------------------------------------------------------------------------
E|-------------------------------------------------------------------------------------------

Stave 2:

E|-------------------------------------------------------------------------------------------
B|-------------------------------------------------------------------------------------------
G|-----------------------------------------17h18---------------------------------------------
D|--19--18--17------17---------17--18--19---------19--18--17---------------------------------
A|--------------19------18h19---------------------------------19--18--17--16-----16--16------
E|---------------------------------------------------------------------------------------17--

Stave 3:

E|----------------------------------------------------------------14--12--------------------------
B|--------------------------------10-----10--10--12p10h12--13h14----------14--13--12--------------
G|--------------6--6--7p6h7--7/9------9-----------------------------------------------14--13--12--
D|--5--7--7--7------------------------------------------------------------------------------------
A|------------------------------------------------------------------------------------------------
E|------------------------------------------------------------------------------------------------

Stave 4:

E|----------------------------------------------------12-----------------------------
B|-------------------------14------12--14--14--13b15------15r13----------------------
G|---------14------12--14------14--------------------------------14--12------12--14--
D|--13h14------14--------------------------------------------------------14----------
A|-----------------------------------------------------------------------------------
E|-----------------------------------------------------------------------------------

Stave 5:

E|--15--12--13--14------12----------------------------------------------------------------------------
B|------------------15------14--14--12----------------------------------------------------------------
G|--------------------------------------14--12--------------------------------------------12--11------
D|----------------------------------------------14--12--11------11------11--12p11h12--14----------14--
A|----------------------------------------------------------12------12--------------------------------
E|----------------------------------------------------------------------------------------------------

Stave 6:

E|------------------------------------------------------12-----------------------------------------
B|----------------------------------------------13b15v---------------------------------------------
G|--11----------11--12--14--15--16--15--14--15--------------14b16--14b16r14b16r14--12--11----------
D|------12--14-----------------------------------------------------------------------------14--12--
A|-------------------------------------------------------------------------------------------------
E|-------------------------------------------------------------------------------------------------

Stave 7:

E|--
B|--
G|--
D|--
A|--
E|--

Stave 8:

E|--------------------------------------------------------------------------
B|--------------------------------------------------------------------------
G|--------------------------------------------------------------------------
D|--12p11--11--14--12--11----------11---------------------------------------
A|-------------------------14--12------12--10--10h12p10---------10----------
E|-------------------------------------------------------11h12------8/9--5--

http://www.guitartabcreator.com
Guitar Tab Creator is intended to store guitar tab created through the tool. It currently does not support in-line text editing. Any text you place in here will be lost. If you need to comment on your tab, please use the "Tab Notes" section located below.