Sound will begin in 5 seconds

wharf rat

01234567891011121314151617181920212223
E
B
G
D
A
E
B
0 1 2 3 4 5 6 7 8 9 10 11 12 13 14 15 16 17 18 19 20 21 22 23
Song Science #1: How Pros Use 6 Chords to Write Hit Songs
(/) Slide Up  (\) Slide Down  (h) Hammer On  (p) Pull Off  (b) Bend (r) Release (v) Vibrato

Stave 1:

E|---------------------------------------------------------12--14--15p14p12--14------12----------------
B|---------------------12--12------12--12--12--12--14--15------------------------15----------12--------
G|---------12--12--14----------14--------------------------------------------------------14------14\0--
D|--12/14----------------------------------------------------------------------------------------------
A|-----------------------------------------------------------------------------------------------------
E|-----------------------------------------------------------------------------------------------------

Stave 2:

E|-------------------------------------------------------10--9------7---------7--------------------
B|------------------------------------------8--7--8--10---------10-----8--10-----8-----7--8--------
G|--6--6----------------4--7--6-----6--7/9------------------------------------------9--------9--7--
D|-------------5--5--7-----------7-----------------------------------------------------------------
A|--------6h7--------------------------------------------------------------------------------------
E|-------------------------------------------------------------------------------------------------

Stave 3:

E|------------------------------------------------------------------------------------------------
B|-----------------------------------------------------------------------------------8-----10-----
G|--9p7--6--7--9p7p6h7-----6-----4--6----------------------------------6-----6--7/9-----8------7--
D|----------------------9-----7--------7--5--7p5-----5-------5--7p5h7-----7-----------------------
A|------------------------------------------------7-----6h7---------------------------------------
E|------------------------------------------------------------------------------------------------

Stave 4:

E|-------------------------------------------------------------------------------------------------7--
B|--------------------------------------------------------8-----8-----7--8--10p8p7h8-----7--8--10-----
G|-----5/6-------------------------------6-----6--7--8/9-----9-----9------------------9---------------
D|--7-------7-------------5-----7--5--7-----7---------------------------------------------------------
A|-------------7-----6h7-----7------------------------------------------------------------------------
E|----------------------------------------------------------------------------------------------------

Stave 5:

E|---------7--9--10------9--10--12-----12--10p9---------12--14--12------------------------------------
B|--8--10------------12--------------------------12/14---------------------14--12---------------------
G|------------------------------------------------------------------13h14----------14------12h14------
D|-------------------------------------------------------------------------------------14---------14--
A|----------------------------------------------------------------------------------------------------
E|----------------------------------------------------------------------------------------------------

Stave 6:

E|------------------------------------------------------------------------------------------------
B|------------------------------------------------------------------------------------------------
G|----------------------------------14------12h14-------------------------------------------------
D|--12--12--11------11--12--13--14------14---------14--12--11--12--11---------------------11--12--
A|--------------12-----------------------------------------------------14--12--11h12--14----------
E|------------------------------------------------------------------------------------------------

Stave 7:

E|----------------------------------------------------------14--12--14v-----14--15p14--14--15--14--12--
B|----------------------------------------------12--13--14---------------------------------------------
G|----------------------------------12--13--14---------------------------------------------------------
D|------11----------11--12--13--14---------------------------------------------------------------------
A|--14------12--14-------------------------------------------------------------------------------------
E|-----------------------------------------------------------------------------------------------------

Stave 8:

E|--14------12--14--12-------------12-----------------------------------------------------------------
B|------15--------------15--14---------15--14--12-----15--14--12------14--12--------------------------
G|----------------------------------------------------------------14----------14--12--16--15--14------
D|------------------------------------------------------------------------------------------------14--
A|----------------------------------------------------------------------------------------------------
E|----------------------------------------------------------------------------------------------------

Stave 9:

E|----------------------------------17--15v--
B|------------------15------14--17-----------
G|--14------14--16------16-------------------
D|------14-----------------------------------
A|-------------------------------------------
E|-------------------------------------------

http://www.guitartabcreator.com
Guitar Tab Creator is intended to store guitar tab created through the tool. It currently does not support in-line text editing. Any text you place in here will be lost. If you need to comment on your tab, please use the "Tab Notes" section located below.