Sound will begin in 5 seconds

west la fade away 10/31/85- solo 1

01234567891011121314151617181920212223
E
B
G
D
A
E
B
0 1 2 3 4 5 6 7 8 9 10 11 12 13 14 15 16 17 18 19 20 21 22 23
Song Science #1: How Pros Use 6 Chords to Write Hit Songs
(/) Slide Up  (\) Slide Down  (h) Hammer On  (p) Pull Off  (b) Bend (r) Release (v) Vibrato

Stave 1:

E|-------------------------------------8--8---------8b9----------------------------------
B|--10p8--8\7--5--5--7--8h10--10p8-----------10----------10--8---------------------------
G|----------------------------------9---------------------------9--8--7-----5b6--5b6-----
D|-----------------------------------------------------------------------7------------7--
A|---------------------------------------------------------------------------------------
E|---------------------------------------------------------------------------------------

Stave 2:

E|---------------------------------------------------------------------8------------
B|--------------------------------------------------8/10--8--10--8/10-----10--8-----
G|--------5b6-----5b6--------------5-----8\7--5----------------------------------9--
D|--5--7-------7-------7--5--6--7-----7----------7----------------------------------
A|----------------------------------------------------------------------------------
E|----------------------------------------------------------------------------------

Stave 3:

E|-----------8--10b12--10--8h10p8------------------------------------------------------------
B|--10p8h10------------------------10-----8--10-------8--8--10-----8-----10p8----------------
G|-----------------------------------------------8h9------------9-----9--------9--9\7--5-----
D|----------------------------------------------------------------------------------------7--
A|-------------------------------------------------------------------------------------------
E|-------------------------------------------------------------------------------------------

Stave 4:

E|--------------------------------------------------------------------------------------------
B|---------------------------------------------------------5--5--8b9--------------------------
G|--5--5-------------------7--8--10\9--7--------------9\7-------------9\7--5-----5b6--5b6-----
D|--------7--5--7--8/9--------------------9--7--7--9--------------------------7------------7--
A|--------------------------------------------------------------------------------------------
E|--------------------------------------------------------------------------------------------

Stave 5:

E|-------------------------------------------------------------------
B|-------------------------------------------------------------------
G|--7p5-----5-----5b6--5b6--------14--12-----------------------------
D|-------7-----7------------7/14----------12--14--14\12--10--12--10--
A|-------------------------------------------------------------------
E|-------------------------------------------------------------------

Stave 6:

E|-----------------------------------------------------------------------------------------15p12--
B|--13-------------13------13b14---------13--15--17\15--13------13--13----------------------------
G|------12h13--14------14---------13/14---------------------14----------14---------12--14---------
D|-----------------------------------------------------------------------------14-----------------
A|------------------------------------------------------------------------------------------------
E|------------------------------------------------------------------------------------------------

Stave 7:

E|-----------------------------------------------------------------------------------
B|--13---------8-------10------------------------------------------------------------
G|------14--------8h9------7---------7--5--------------------7--7--------9/11--7-----
D|----------------------------9------------7--5--7--9-----9--------9--9-----------9--
A|-------------------------------10--------------------------------------------------
E|-----------------------------------------------------------------------------------

Stave 8:

E|---------10-----------------------------------------------------------------------------
B|--10/12------12\10--8--10-----12\10--8h9--10--8--10--10/12--10--10--8-------------------
G|---------------------------9-------------------------------------------9\7--5-----5-----
D|-------------------------------------------------------------------------------7-----7--
A|----------------------------------------------------------------------------------------
E|----------------------------------------------------------------------------------------

http://www.guitartabcreator.com
Guitar Tab Creator is intended to store guitar tab created through the tool. It currently does not support in-line text editing. Any text you place in here will be lost. If you need to comment on your tab, please use the "Tab Notes" section located below.