Sound will begin in 5 seconds

Way To Go Home Solo Auburn Hills, 09/31/94 solo

01234567891011121314151617181920212223
E
B
G
D
A
E
B
0 1 2 3 4 5 6 7 8 9 10 11 12 13 14 15 16 17 18 19 20 21 22 23
Song Science #1: How Pros Use 6 Chords to Write Hit Songs
(/) Slide Up  (\) Slide Down  (h) Hammer On  (p) Pull Off  (b) Bend (r) Release (v) Vibrato

Stave 1:

E|-----------------15------15--17b19---------15--19r17------15h17--17b19r17--15------15--17b19----------
B|---------15--17------17-------------15h17-------------17-----------------------17-------------15--17--
G|--14/16-----------------------------------------------------------------------------------------------
D|------------------------------------------------------------------------------------------------------
A|------------------------------------------------------------------------------------------------------
E|------------------------------------------------------------------------------------------------------

Stave 2:

E|--------------------------------------------------------------------------------------17b---17br17--
B|--15--18--17--15------17------15--------------------------------------------------------------------
G|------------------16------16------15/16-------------------------15/16------17r16--------------------
D|-----------------------------------------17p15------15--16--17---------17---------17----------------
A|------------------------------------------------17--------------------------------------------------
E|----------------------------------------------------------------------------------------------------

Stave 3:

E|--15------15------15--17b19----------15-----------------------------------------
B|------17------17-------------15--17------15b17--15r13--13------13---------------
G|-----------------------------------------------------------14------14/15\14\12--
D|--------------------------------------------------------------------------------
A|--------------------------------------------------------------------------------
E|--------------------------------------------------------------------------------

Stave 4:

E|--------------------15--17p15------17p15------17p15----------15------15--15----------
B|---------15--15/17-------------17---------17---------17--15------17----------17--15--
G|--14/16------------------------------------------------------------------------------
D|-------------------------------------------------------------------------------------
A|-------------------------------------------------------------------------------------
E|-------------------------------------------------------------------------------------

Stave 5:

E|--17b19--17p16p15------15----------15--19--17--15------15--17r15--15--15------------------------
B|-------------------17------15--17------------------17---------------------18p17p15------15--17--
G|------------------------------------------------------------------------------------16----------
D|------------------------------------------------------------------------------------------------
A|------------------------------------------------------------------------------------------------
E|------------------------------------------------------------------------------------------------

Stave 6:

E|---------------------------------------------------------------------------------------------------
B|--15--15------------------17r15--15-------------18--17--15-------------------------15--15--13--13--
G|--------------15--16--17-------------15h16------------------18\17--15------15--17------------------
D|----------17--------------------------------17-------------------------17--------------------------
A|---------------------------------------------------------------------------------------------------
E|---------------------------------------------------------------------------------------------------

http://www.guitartabcreator.com
Guitar Tab Creator is intended to store guitar tab created through the tool. It currently does not support in-line text editing. Any text you place in here will be lost. If you need to comment on your tab, please use the "Tab Notes" section located below.