Sound will begin in 5 seconds

viola lee harper 5 2 70 starts at 5:00

01234567891011121314151617181920212223
E
B
G
D
A
E
B
0 1 2 3 4 5 6 7 8 9 10 11 12 13 14 15 16 17 18 19 20 21 22 23
Song Science #1: How Pros Use 6 Chords to Write Hit Songs
(/) Slide Up  (\) Slide Down  (h) Hammer On  (p) Pull Off  (b) Bend (r) Release (v) Vibrato

Stave 1:

E|---------------------------------------------------------------------------------------13--
B|--15r13--11b12--11b12--11b12--13--11b12-----------------------13--13b15--13b15--13b15------
G|-----------------------------------------12--10h12p10--12----------------------------------
D|-------------------------------------------------------------------------------------------
A|-------------------------------------------------------------------------------------------
E|-------------------------------------------------------------------------------------------

Stave 2:

E|-------------------------------------------------------------------------------------------------
B|--15r13--11--13--11b12---------------------------------------------------------------------------
G|------------------------12---------10h12--12v--10h12----------------10/12v--10h12----------------
D|----------------------------10h12---------------------12\10--8---------------------12\10--8------
A|----------------------------------------------------------------10---------------------------10--
E|-------------------------------------------------------------------------------------------------

Stave 3:

E|------------------------------------------------------------------------------------
B|------------------------------------------------------------------------------------
G|--10h12------10h12-------------------10h12--10------10-----------------------10h12--
D|---------12---------12\10--8--------------------12------12\10--12\10--8-------------
A|------------------------------10-----------------------------------------10---------
E|------------------------------------------------------------------------------------

Stave 4:

E|-----------------------------------------------------------------------------------------------
B|-----------------------------------------------------------------------------------------------
G|--10-------------------------------------------------------------------------------------------
D|------12\10--10b11r10--8h10--10--8---------8------------8------8h9-----------------------------
A|------------------------------------10--------10p8---------10-------10---------8--8------8h10--
E|----------------------------------------------------10---------------------10--------10--------

Stave 5:

E|---------13----------------------------15----------15----------15-----------------------------------
B|--13b15------15r13--11-------------15----------15----------15------18b20--18b20r18--15--------------
G|---------------------------16--16----------16----------16-------------------------------18--17--15--
D|----------------------------------------------------------------------------------------------------
A|----------------------------------------------------------------------------------------------------
E|----------------------------------------------------------------------------------------------------

Stave 6:

E|--------------------------------------------------------------------------------------------------------
B|--------------------------------------------------------------------------------------------------------
G|----------15b16-----------------------------------------------------------------------------------------
D|--17--17---------17p15------15h17p15--------------------------------------------------------------------
A|------------------------17------------17\15--13--15------13--15--16p15p13--15------13h15p13------13-----
E|-----------------------------------------------------15------------------------15------------15------15p

Stave 7:

E|----------------------------------------------------------15---------------------------------------
B|--------------------------------------------------------------18--15-------------------------------
G|---------16----------------------------------------15/16--------------17--15/16--------------------
D|-------------17--17--17--15--17-----17--15--17-----------------------------------17p15--17p15------
A|--15/17----------------------------------------------------------------------------------------17--
E|---------------------------------------------------------------------------------------------------

Stave 8:

E|---------15---------------------------------------------------------------------------------------------
B|-----------------18--15------------------------------------17-------------------------------------------
G|--15/16------16----------17--15--15/16-----------------17-----------------------------------------------
D|----------------------------------------17\16------------------15--17--15-------------------------------
A|-----------------------------------------------17--17----------------------17\15--13------13------------
E|--------------------------------------------------------------------------------------15------15p13h15--

Stave 9:

E|---------------------------------------------------------------------------------------------------
B|---------------------------------------------------------------------------------------------------
G|---------------------------------------------------------------------------------------------------
D|------------------------------------------------------------------7\9--7/9--5------------11\10--8--
A|--13\12--14/15--13-----------------------12/14--14\12--10--8--10------------------8--10------------
E|--------------------15-----13h15--15---------------------------------------------------------------

Stave 10:

E|------------------------------------------------------------------------------------------------------
B|------------------------------------------------------------------------------------------------------
G|------------------------------------------------------------------------------------------------------
D|---------------------8h10--8--------------------------------------------------------------------8/10--
A|--10p8h10-----8--10-----------10-----8--10--8--10--8-----10--13/15--13\12--10-----8--10--8--10--------
E|------------------------------------------------------------------------------------------------------

Stave 11:

E|-------------------------------------------------------------------------------------------------------
B|--------------------------------------------------------------------------------12---------------------
G|-----------------------------------------------------------------10--10-------------12v----------------
D|--8/10\8-----------------10--12\10--8------10--8------10/12--12----------12--9-----------12\10--8------
A|----------10-----8h10p8----------------10---------10-----------------------------------------------10--
E|-------------------------------------------------------------------------------------------------------

Stave 12:

E|--------------------------------------------------------------------------------------------------
B|--------------------------------------------------------------------------------------------------
G|------10h12--12-----------------------10h12--12------10-------------------------------------------
D|--12-------------12\10--8---------12-------------12------12\10--8-------------8--10/12\10--8------
A|---------------------------10--------------------------------------10-----10------------------10--
E|--------------------------------------------------------------------------------------------------

Stave 13:

E|---------------------------------------------------------------15---------------------------------
B|-------------------------12----------------------------------------18b20--18----------------------
G|------10---------------------12--15/16------------------15/16-----------------19--18--19--18--17--
D|--10------10/12--10--12-----------------17--17--17--17--------------------------------------------
A|--------------------------------------------------------------------------------------------------
E|--------------------------------------------------------------------------------------------------

Stave 14:

E|-------------------------------------------------------------------------------------------
B|-------------------------------------------------------------------------------------------
G|--15--17p15------17------15b16-------------------------------------------------------------
D|-------------17------17---------17p15---------15h17------15--------------------15----------
A|---------------------------------------17------------17------17\15--13--15/17------13------
E|---------------------------------------------------------------------------------------15--

Stave 15:

E|--------------------------------------------------------15-------------------------------------------
B|-----------------------------------------17-----------------18b20--18b20---------------------17------
G|-----------------15------------------17----------15/16--------------------18\17--15------17------15--
D|---------------------17------15--17----------17--------------------------------------17--------------
A|--15--13--15/17----------17--------------------------------------------------------------------------
E|-----------------------------------------------------------------------------------------------------

Stave 16:

E|---------------------------------------------------------------------------------------------
B|---------------------------------------------------------------------------------------------
G|--15h17p15------15/16------------------------------------------------------------------------
D|------------17---------17p15------17------15h17p15------15-----------------------------------
A|------------------------------17------17------------17------17\15--17\15--13------13--15/17--
E|------------------------------------------------------------------------------15-------------

Stave 17:

E|-----------------------------------
B|-----------------------------------
G|-----------------------------------
D|---------15---------15---------15--
A|--15/17------16h17------15/17------
E|-----------------------------------

http://www.guitartabcreator.com
Guitar Tab Creator is intended to store guitar tab created through the tool. It currently does not support in-line text editing. Any text you place in here will be lost. If you need to comment on your tab, please use the "Tab Notes" section located below.