Sound will begin in 5 seconds

viola lee harper 5 2 70

01234567891011121314151617181920212223
E
B
G
D
A
E
B
0 1 2 3 4 5 6 7 8 9 10 11 12 13 14 15 16 17 18 19 20 21 22 23
Song Science #1: How Pros Use 6 Chords to Write Hit Songs
(/) Slide Up  (\) Slide Down  (h) Hammer On  (p) Pull Off  (b) Bend (r) Release (v) Vibrato

Stave 1:

E|---------------------------------------------------------------------------------------13--
B|--15r13--11b12--11b12--11b12--13--11b12-----------------------13--13b15--13b15--13b15------
G|-----------------------------------------12--10h12p10--12----------------------------------
D|-------------------------------------------------------------------------------------------
A|-------------------------------------------------------------------------------------------
E|-------------------------------------------------------------------------------------------

Stave 2:

E|-------------------------------------------------------------------------------------------------
B|--15r13--11--13--11b12---------------------------------------------------------------------------
G|------------------------12---------10h12--12v--10h12----------------10/12v--10h12----------------
D|----------------------------10h12---------------------12\10--8---------------------12\10--8------
A|----------------------------------------------------------------10---------------------------10--
E|-------------------------------------------------------------------------------------------------

Stave 3:

E|------------------------------------------------------------------------------------
B|------------------------------------------------------------------------------------
G|--10h12------10h12-------------------10h12--10------10-----------------------10h12--
D|---------12---------12\10--8--------------------12------12\10--12\10--8-------------
A|------------------------------10-----------------------------------------10---------
E|------------------------------------------------------------------------------------

Stave 4:

E|-----------------------------
B|-----------------------------
G|--10-------------------------
D|------12\10--10b11r10--8h10--
A|-----------------------------
E|-----------------------------

http://www.guitartabcreator.com
Guitar Tab Creator is intended to store guitar tab created through the tool. It currently does not support in-line text editing. Any text you place in here will be lost. If you need to comment on your tab, please use the "Tab Notes" section located below.