Sound will begin in 5 seconds

u.s. blues 6 23 74 solo

01234567891011121314151617181920212223
E
B
G
D
A
E
B
0 1 2 3 4 5 6 7 8 9 10 11 12 13 14 15 16 17 18 19 20 21 22 23
Song Science #1: How Pros Use 6 Chords to Write Hit Songs
(/) Slide Up  (\) Slide Down  (h) Hammer On  (p) Pull Off  (b) Bend (r) Release (v) Vibrato

Stave 1:

E|--------------------------------5----------------------------------------------
B|-----------------------------------8--5----------------------------------------
G|--7b9r7--5-----5--5-----5h6--------------7--7b9r7--5-----------5/6-----5--7b9--
D|------------7--------7--------------------------------7--5--7------------------
A|--------------------------------------------------------------------7----------
E|-------------------------------------------------------------------------------

Stave 2:

E|----------5--5--5--5--------5-----5---------------10b12--12--12r10--8--10------10b12r10--8------
B|-------5--------------8b10-----------------10--8---------------------------10---------------10--
G|--7b9--------------------------------7--9-------------------------------------------------------
D|------------------------------------------------------------------------------------------------
A|------------------------------------------------------------------------------------------------
E|------------------------------------------------------------------------------------------------

Stave 3:

E|--8b9--8b9--8b9-----------------------------------12--11--10---------10---------------------
B|-----------------10-----------10--10------10------------------12b14------14r12--10------10--
G|------------------------9/11----------11------11------------------------------------11------
D|--------------------------------------------------------------------------------------------
A|--------------------------------------------------------------------------------------------
E|--------------------------------------------------------------------------------------------

Stave 4:

E|-------------------------------------------------------------------------------------------------
B|--13b15--15--15--15--15r13--10---------10--10------10--12b14r12b14--12/15--15--15p14p13------15--
G|--------------------------------10/11----------11----------------------------------------14------
D|-------------------------------------------------------------------------------------------------
A|-------------------------------------------------------------------------------------------------
E|-------------------------------------------------------------------------------------------------

Stave 5:

E|-----------------------------------------------------------------------------------------------------
B|--15--15p14p13------15--15--15p14p13------15-----17--17--17p16--17--17p16--17--17p16--17-----16--17--
G|----------------14--------------------14-------------------------------------------------------------
D|-----------------------------------------------------------------------------------------------------
A|-----------------------------------------------------------------------------------------------------
E|-----------------------------------------------------------------------------------------------------

Stave 6:

E|--19--18--17--16h17p16---------------------
B|------------------------17--16-----16--17--
G|-------------------------------------------
D|-------------------------------------------
A|-------------------------------------------
E|-------------------------------------------

http://www.guitartabcreator.com
Guitar Tab Creator is intended to store guitar tab created through the tool. It currently does not support in-line text editing. Any text you place in here will be lost. If you need to comment on your tab, please use the "Tab Notes" section located below.