Sound will begin in 5 seconds

u.s. blues 6 23 74 intro 1

01234567891011121314151617181920212223
E
B
G
D
A
E
B
0 1 2 3 4 5 6 7 8 9 10 11 12 13 14 15 16 17 18 19 20 21 22 23
Song Science #1: How Pros Use 6 Chords to Write Hit Songs
(/) Slide Up  (\) Slide Down  (h) Hammer On  (p) Pull Off  (b) Bend (r) Release (v) Vibrato

Stave 1:

E|--10b12-------------------------------------------------------------------------
B|---------10b12--10--8-----8--10--10-----10--------------------------------------
G|-----------------------9--------------------9--8--7-----5b6--5b6----------------
D|-----------------------------------------------------7------------7p5-----5--7--
A|-----------------------------------------------------------------------7--------
E|--------------------------------------------------------------------------------

Stave 2:

E|--10b12-----10b12r10--8---------10--8b9-------------8b9-------------------------
B|-------------------------10--8-----------10-----10-------10---------------------
G|-------------------------------------------------------------9--8--7--5b6-------
D|---------------------------------------------------------------------------7\0--
A|--------------------------------------------------------------------------------
E|--------------------------------------------------------------------------------

Stave 3:

E|--------------------------------------------------------------------------------------------------
B|---------------------------------------------------------------------------------------5----------
G|--7b9--9r7--5b6--------------7b9--9r7--5b6--5b6--------------7b9--5--7--5b6--7b9--7b9-----9r7--5--
D|-----------------7--5--7-------------------------7--5--7------------------------------------------
A|--------------------------------------------------------------------------------------------------
E|--------------------------------------------------------------------------------------------------

Stave 4:

E|--
B|--
G|--
D|--
A|--
E|--

Stave 5:

E|--5-----5--5------------------------------------------------------------------------------------
B|-----5--------8-----------------------------------------------8---------------------------------
G|-----------------7b9r7p5--------5b6-----5b6--------------7b9-----9r7--5-------------------------
D|--------------------------7--7-------7-------7--5------------------------7--7-----5-----7--7p5--
A|---------------------------------------------------7---------------------------------7----------
E|------------------------------------------------------------------------------------------------

Stave 6:

E|---------------------------------------------------------------------------------------
B|----------------------------7b9r7p5----------------------------------------------------
G|-----------5--------7b9--------------7--5b6--7--5--------------5b6-----5b6-------------
D|-----5--7-----7------------------------------------7--7--7----------7-------7p5--7--7--
A|--7------------------------------------------------------------------------------------
E|---------------------------------------------------------------------------------------

Stave 7:

E|--------------------------------------------------------------------------------------
B|--12b14--14r12--10--10--10-----12b14--14r12--10----------10----------5-----8-------5--
G|-------------------------------------------------11--11---------7b9-----7-----7b9-----
D|--------------------------------------------------------------------------------------
A|--------------------------------------------------------------------------------------
E|--------------------------------------------------------------------------------------

Stave 8:

E|---------------------------------------------
B|--5------------------------------------------
G|-----7b9r7--5--7-----5b6---------------------
D|------------------7-------7------------------
A|-----------------------------7--5--3---------
E|--------------------------------------5p3h5--

http://www.guitartabcreator.com
Guitar Tab Creator is intended to store guitar tab created through the tool. It currently does not support in-line text editing. Any text you place in here will be lost. If you need to comment on your tab, please use the "Tab Notes" section located below.