Sound will begin in 5 seconds

uncle johns 9 18 74 verse solo

01234567891011121314151617181920212223
E
B
G
D
A
E
B
0 1 2 3 4 5 6 7 8 9 10 11 12 13 14 15 16 17 18 19 20 21 22 23
Song Science #1: How Pros Use 6 Chords to Write Hit Songs
(/) Slide Up  (\) Slide Down  (h) Hammer On  (p) Pull Off  (b) Bend (r) Release (v) Vibrato

Stave 1:

E|-----------------------15p14h15--17p15p14h15--17--17/19--19--------------------------------
B|--14--15--15h17p15h17----------------------------------------15--15--15--17p16p15----------
G|-----------------------------------------------------------------------------------16------
D|---------------------------------------------------------------------------------------17--
A|-------------------------------------------------------------------------------------------
E|-------------------------------------------------------------------------------------------

Stave 2:

E|---------------------------------------------------------------------------------------------
B|--17--17p16p15------15--15--17--15------15--15\13------13--15p13--12--13-----13--12--15--13--
G|----------------16------------------16-------------14----------------------------------------
D|---------------------------------------------------------------------------------------------
A|---------------------------------------------------------------------------------------------
E|---------------------------------------------------------------------------------------------

Stave 3:

E|------------------------------------------------------------------------------------------------
B|--12--12--12--10-------------10-------------------12--12--13--15-----15--15--15/17--17--15--15--
G|------------------12p11----------12p11h12-----12------------------------------------------------
D|-------------------------12---------------------------------------------------------------------
A|------------------------------------------------------------------------------------------------
E|------------------------------------------------------------------------------------------------

Stave 4:

E|--14------15--14--17--15--14--15p14--15--17p15p14------17--14--------------14--14--14/15--15--15--
B|------17-------------------------------------------15----------15--15--15-------------------------
G|--------------------------------------------------------------------------------------------------
D|--------------------------------------------------------------------------------------------------
A|--------------------------------------------------------------------------------------------------
E|--------------------------------------------------------------------------------------------------

Stave 5:

E|--------------------------------------------------------------------------------------------------7--
B|--15--17--15h17--15------15--15h17p15------15--15h17p15------17--15-------------------8--10p8h10-----
G|---------------------16----------------16----------------16------------------7--8--9-----------------
D|------------------------------------------------------------------------7/9--------------------------
A|-----------------------------------------------------------------------------------------------------
E|-----------------------------------------------------------------------------------------------------

Stave 6:

E|--7------7--8--7--8--10p8p7h8------7------8--10--12--12p10h12--10--10--10p8p7h8--8--10b12r10--
B|-----10------------------------10-----10------------------------------------------------------
G|----------------------------------------------------------------------------------------------
D|----------------------------------------------------------------------------------------------
A|----------------------------------------------------------------------------------------------
E|----------------------------------------------------------------------------------------------

Stave 7:

E|-----------------------------------------------------17--17p15--17b19--19r17--15-------------
B|---------15--17--17b19r17--17--17b19r17--15------15-------------------------------17--15h17--
G|--14/16--------------------------------------16----------------------------------------------
D|---------------------------------------------------------------------------------------------
A|---------------------------------------------------------------------------------------------
E|---------------------------------------------------------------------------------------------

Stave 8:

E|-------------------------------------------------------------------------------------------------
B|--17b19--19r17--15--17p15--15-----13b15--12--13--12------12--------------12----------------------
G|-----------------------------------------------------14------14--12--14------14--12--12----------
D|-----------------------------------------------------------------------------------------14--12--
A|-------------------------------------------------------------------------------------------------
E|-------------------------------------------------------------------------------------------------

Stave 9:

E|-----------------------------------------------------------------------------------------------
B|-----------------------------------------------------------------------------------------------
G|-----------------------------------------------------------------------------------------------
D|--14--14--12--10--9--10--9----------12--10--9--10--9-----------------9--10--12--10--10--10h12--
A|----------------------------12--10--------------------12--10--10-------------------------------
E|-----------------------------------------------------------------------------------------------

http://www.guitartabcreator.com
Guitar Tab Creator is intended to store guitar tab created through the tool. It currently does not support in-line text editing. Any text you place in here will be lost. If you need to comment on your tab, please use the "Tab Notes" section located below.