Sound will begin in 5 seconds

uncle johns 9 18 74 intro

01234567891011121314151617181920212223
E
B
G
D
A
E
B
0 1 2 3 4 5 6 7 8 9 10 11 12 13 14 15 16 17 18 19 20 21 22 23
Song Science #1: How Pros Use 6 Chords to Write Hit Songs
(/) Slide Up  (\) Slide Down  (h) Hammer On  (p) Pull Off  (b) Bend (r) Release (v) Vibrato

Stave 1:

E|--7-----7--10-------------7---------------------------------7--8p7--8--9--10p9p8p7--------------------
B|-----8---------10--7--10-----8-----8--10--8p7--------8--10--------------------------8--10--10/12--10--
G|--------------------------------9--------------7------------------------------------------------------
D|------------------------------------------------------------------------------------------------------
A|------------------------------------------------------------------------------------------------------
E|------------------------------------------------------------------------------------------------------

Stave 2:

E|---------10--10------10--12----------15p14--15--17--15p14h15--15p14------14----------------------
B|--11/12----------13----------15--17----------------------------------15------17--17--17--15--15--
G|-------------------------------------------------------------------------------------------------
D|-------------------------------------------------------------------------------------------------
A|-------------------------------------------------------------------------------------------------
E|-------------------------------------------------------------------------------------------------

Stave 3:

E|----------------------------------------------------------------------------------------------------
B|--12--13--15--15p13p12h13------12-------------------------------------------------------------------
G|---------------------------14------12--14--12\11--11------9-------------------------------11h12p11--
D|------------------------------------------------------12-----12--10p9h10--12--12--12--14------------
A|----------------------------------------------------------------------------------------------------
E|----------------------------------------------------------------------------------------------------

Stave 4:

E|------------------------------------------------------------------------------------
B|--------------------------------10--------------------------------------------------
G|--12p11h12--14--12--12--12--11------11------9--11--11--9----------------------------
D|----------------------------------------12----------------12--9---------------------
A|-----------------------------------------------------------------10--12--12-----12--
E|------------------------------------------------------------------------------------

Stave 5:

E|--
B|--
G|--
D|--
A|--
E|--

http://www.guitartabcreator.com
Guitar Tab Creator is intended to store guitar tab created through the tool. It currently does not support in-line text editing. Any text you place in here will be lost. If you need to comment on your tab, please use the "Tab Notes" section located below.