Sound will begin in 5 seconds

tweezer msg 1 2 16 part 2

01234567891011121314151617181920212223
E
B
G
D
A
E
B
0 1 2 3 4 5 6 7 8 9 10 11 12 13 14 15 16 17 18 19 20 21 22 23
Song Science #1: How Pros Use 6 Chords to Write Hit Songs
(/) Slide Up  (\) Slide Down  (h) Hammer On  (p) Pull Off  (b) Bend (r) Release (v) Vibrato

Stave 1:

E|--15--15--15--15--14--12------------------------------------------------------------------12--
B|--------------------------15--13------12--13------13----------------------------------13------
G|----------------------------------13----------14------14--13------12----------12--14----------
D|--------------------------------------------------------------14------13--14------------------
A|----------------------------------------------------------------------------------------------
E|----------------------------------------------------------------------------------------------

Stave 2:

E|--15--15--15--15--14------15--14----------------------------------------------
B|----------------------17----------17--15--17------17------17------17------17--
G|----------------------------------------------17------17------17------17------
D|------------------------------------------------------------------------------
A|------------------------------------------------------------------------------
E|------------------------------------------------------------------------------

Stave 3:

E|----------------------------------------------------------------------
B|--15--17--15--17--15--17--15--17------17------17------17--17--17--17--
G|----------------------------------17------17------17------------------
D|----------------------------------------------------------------------
A|----------------------------------------------------------------------
E|----------------------------------------------------------------------

Stave 4:

E|------------------------------------------------------------------------------------------------------
B|--15--17--15--17--15--17--15--17------17------17------17------17--17------17------17------17------17--
G|----------------------------------17------17------17------17----------16------16------16------16------
D|------------------------------------------------------------------------------------------------------
A|------------------------------------------------------------------------------------------------------
E|------------------------------------------------------------------------------------------------------

Stave 5:

E|------------------------------------------------------------------12--14--15------12--14--15--17--
B|--------------------------------------12--13--12------12--13--15--------------15------------------
G|--14--------------12--11--11--12--14--------------14----------------------------------------------
D|----------12--14----------------------------------------------------------------------------------
A|------12------------------------------------------------------------------------------------------
E|--------------------------------------------------------------------------------------------------

Stave 6:

E|--17--15----------------------------------------------------------------------------------------------
B|--------------15--17--15--13----------------------13--13----------------------------------------------
G|----------16------------------14------12--14--12----------14--12------12------------------------------
D|----------------------------------14------------------------------14------14--12------12--14----------
A|----------------------------------------------------------------------------------14----------15--12--
E|------------------------------------------------------------------------------------------------------

Stave 7:

E|--------------12--15--------------15------12----------0--0--------------------------------------
B|------15--17----------12--15--13------15------13------------------------------------------------
G|--14----------------------------------------------14------------12--14--14--14--14--14--14--14--
D|------------------------------------------------------------14----------------------------------
A|------------------------------------------------------------------------------------------------
E|------------------------------------------------------------------------------------------------

Stave 8:

E|----------------------------------------------------------------------
B|------------------------------------------13--------------------------
G|--14--13--12--------------------------14------14------12--14----------
D|--------------14--13--12----------14--------------14----------14--12--
A|--------------------------15--12--------------------------------------
E|----------------------------------------------------------------------

Stave 9:

E|--------5---------------------------------------
B|--------------8--9--7--5-----------------10--8--
G|--7--9-----7--------------7--5--7--9--9---------
D|------------------------------------------------
A|------------------------------------------------
E|------------------------------------------------

http://www.guitartabcreator.com
Guitar Tab Creator is intended to store guitar tab created through the tool. It currently does not support in-line text editing. Any text you place in here will be lost. If you need to comment on your tab, please use the "Tab Notes" section located below.