Sound will begin in 5 seconds

tweezer msg 1 2 16

01234567891011121314151617181920212223
E
B
G
D
A
E
B
0 1 2 3 4 5 6 7 8 9 10 11 12 13 14 15 16 17 18 19 20 21 22 23
Song Science #1: How Pros Use 6 Chords to Write Hit Songs
(/) Slide Up  (\) Slide Down  (h) Hammer On  (p) Pull Off  (b) Bend (r) Release (v) Vibrato

Stave 1:

E|----------------------12-15-14----12-------------------------------------------------
B|-13-12-13-12-13-12-15----------15-------12-15-13-12----12----------------------------
G|-------------------------------------13-------------14-------12-14-13-------12-------
D|----------------------------------------------------------13----------14-14----14-14-
A|-------------------------------------------------------------------------------------
E|-------------------------------------------------------------------------------------

Stave 2:

E|-------------------------------0-0---------5-----------------0-0-----------------
B|-------------------------------------5-7-8-----5-8-7-8-5-------------------------
G|----------------------------14-----7---------6-----------4-5-----7-4-5-4-5-7-5-7-
D|-14-12----12-14-13-12------------------------------------------------------------
A|-------14-------------14-12------------------------------------------------------
E|---------------------------------------------------------------------------------

Stave 3:

E|---------------------------------------------------8------------8---------
B|-5-4-5-7-5-7-8-7-8-10-8-10---8-10-10-10-10-10-10-----10-8-7---7---8-----7-
G|---------------------------9---------------------9----------9-------9-9---
D|--------------------------------------------------------------------------
A|--------------------------------------------------------------------------
E|--------------------------------------------------------------------------

http://www.guitartabcreator.com
Guitar Tab Creator is intended to store guitar tab created through the tool. It currently does not support in-line text editing. Any text you place in here will be lost. If you need to comment on your tab, please use the "Tab Notes" section located below.