Sound will begin in 5 seconds

truckin 6/26/74

01234567891011121314151617181920212223
E
B
G
D
A
E
B
0 1 2 3 4 5 6 7 8 9 10 11 12 13 14 15 16 17 18 19 20 21 22 23
Song Science #1: How Pros Use 6 Chords to Write Hit Songs
(/) Slide Up  (\) Slide Down  (h) Hammer On  (p) Pull Off  (b) Bend (r) Release (v) Vibrato

Stave 1:

E|-----------------12---------12-----------------12----------------------------------------------------
B|-------------12-----------------15--12-------------12---------------------12-------------------------
G|--11/13--13----------11/13--------------14/16----------14--12/13------14------12/13------------------
D|------------------------------------------------------------------14-----------------12--14--14--14--
A|-----------------------------------------------------------------------------------------------------
E|-----------------------------------------------------------------------------------------------------

Stave 2:

E|----------------------------------------------------------------------------------------------
B|----------------------------------------------------------------------------------------------
G|------12/13------12--13--14p13----------------------12/13-------------------------14b16--16v--
D|--14---------14-----------------14------12--13--14---------12---------12----------------------
A|------------------------------------14-------------------------13h14------14--11--------------
E|----------------------------------------------------------------------------------------------

Stave 3:

E|---------------------------------------------------------12---------------------------
B|-------------------------------------------------------------15--12-------------------
G|--13--14--14b16--16--12--14--14b16r14-----12--14--14b16--------------14b16r14p12------
D|----------------------------------------------------------------------------------14--
A|--------------------------------------------------------------------------------------
E|--------------------------------------------------------------------------------------

Stave 4:

E|--------------------------------------------17b19r17p16h17--15------15--15/16----------14b16r14--
B|---------15--15------15--15--17--17-----15----------------------17-------------17--15------------
G|--14/16----------16------------------------------------------------------------------------------
D|-------------------------------------------------------------------------------------------------
A|-------------------------------------------------------------------------------------------------
E|-------------------------------------------------------------------------------------------------

Stave 5:

E|------12--12------------------------------------------------------------------------------------------
B|--14----------15--------------15------15--17--15-------------15---------------------------------------
G|------------------14--15--16------16--------------16-----16------16--15--14--12b13-------------12/13--
D|------------------------------------------------------------------------------------14p12-------------
A|-------------------------------------------------------------------------------------------14---------
E|------------------------------------------------------------------------------------------------------

Stave 6:

E|-------------------------------------------------------------------------------------------------
B|-------------------------------------------------------------------------------------------------
G|--12h14p12h14--16--15--14--12--15--------------14p12------12/13----------------------------------
D|-----------------------------------14--12--14---------14---------14--12------14------14--14--12--
A|-------------------------------------------------------------------------14------14--------------
E|-------------------------------------------------------------------------------------------------

Stave 7:

E|------------------------------------------------------------------------------------------------
B|------------------------------------------------------------------------------------------------
G|--------------------------------------------------------------12/13--14------12--14--12/13------
D|----------12--------------12----------12----------12--14--14-------------14-----------------14--
A|--14--13------14--13--14------13--14------13--14------------------------------------------------
E|------------------------------------------------------------------------------------------------

Stave 8:

E|---------------------------------------------------------------------------------------------------
B|-----------------15-----------------------------------15b17--17--17--17--17--17--17--15b17--15b17--
G|--14--12--14/16------16--16--16--16\14--12---------------------------------------------------------
D|--------------------------------------------14-----------------------------------------------------
A|---------------------------------------------------------------------------------------------------
E|---------------------------------------------------------------------------------------------------

Stave 9:

E|------------------------------------------------------------------------------------------
B|--15b17--17--17--17--17--17--15b17--17--17--17--15b17--17--17--17--15b17--17--17--17--17--
G|------------------------------------------------------------------------------------------
D|------------------------------------------------------------------------------------------
A|------------------------------------------------------------------------------------------
E|------------------------------------------------------------------------------------------

Stave 10:

E|-----------------------------------------------------------------------------------------------------
B|--15b17--17--15b17--17--17--17--17r15--12--15-----------------12-------------------------------------
G|-----------------------------------------------12/13--12--14------14--12/13--------------------------
D|-----------------------------------------------------------------------------14--12------12--14--12--
A|-------------------------------------------------------------------------------------14--------------
E|-----------------------------------------------------------------------------------------------------

Stave 11:

E|----------------------------------------------------------------------------------------------
B|----------------------------------------------------------------------------------------------
G|--------------------------------12h14--14b16r14--12-------------12b13--12b13------------------
D|------------12------12--12--14-----------------------14p12------------------------12--14------
A|--14p12h14------14------------------------------------------14----------------14----------14--
E|----------------------------------------------------------------------------------------------

Stave 12:

E|-----------------12--------------------------------------------------------------------------------
B|---------------------15--12------------------------------------------12----------------------------
G|-----------------------------14b16--16--16--16--14b16--14b16--14b16------16r14--12b14--------------
D|------12--14---------------------------------------------------------------------------14--14--14--
A|--14-----------------------------------------------------------------------------------------------
E|---------------------------------------------------------------------------------------------------

Stave 13:

E|--
B|--
G|--
D|--
A|--
E|--

http://www.guitartabcreator.com
Guitar Tab Creator is intended to store guitar tab created through the tool. It currently does not support in-line text editing. Any text you place in here will be lost. If you need to comment on your tab, please use the "Tab Notes" section located below.