Sound will begin in 5 seconds

touch of grey

01234567891011121314151617181920212223
E
B
G
D
A
E
B
0 1 2 3 4 5 6 7 8 9 10 11 12 13 14 15 16 17 18 19 20 21 22 23
Song Science #1: How Pros Use 6 Chords to Write Hit Songs
(/) Slide Up  (\) Slide Down  (h) Hammer On  (p) Pull Off  (b) Bend (r) Release (v) Vibrato

Stave 1:

E|-------7----------7-----6-----7--7-------------------------------------------------------------------
B|----------7----------7-----9-------------------------------9h10--10--10--10--9-----------------------
G|--6/8--------6/8---------------------------------9------9------------------------------------11------
D|---------------------------------------9/11--11-----11-----------------------------9/11--11------11--
A|-----------------------------------------------------------------------------------------------------
E|-----------------------------------------------------------------------------------------------------

Stave 2:

E|-----------------------------11---------12------12p11--12--14p12p11--12--11--------------11--11--
B|----------11-----11--12--14--------------------------------------------------14--12--14----------
G|--11--13-------------------------11/13------13---------------------------------------------------
D|-------------------------------------------------------------------------------------------------
A|-------------------------------------------------------------------------------------------------
E|-------------------------------------------------------------------------------------------------

Stave 3:

E|--11----------11---------------------------------------------------------------------------------------
B|------14--12------14--11----------14--12---------9-----------9-----10-----10--12--9------------11------
G|--------------------------11--13--------------------9-----9-----9------9-------------------11------11--
D|------------------------------------------13\11--------9-----------------------------9/11--------------
A|-------------------------------------------------------------------------------------------------------
E|-------------------------------------------------------------------------------------------------------

Stave 4:

E|--14--11--------------------------11---------12-------------14---------16----------16--
B|----------12------14--11--12--14-------------------------------------------------------
G|--------------11----------------------11/13------13--13/14------14/16------16--16------
D|---------------------------------------------------------------------------------------
A|---------------------------------------------------------------------------------------
E|---------------------------------------------------------------------------------------

Stave 5:

E|---------------------------------------------11----------12---------12--11----------
B|--11------11------11--12--14--12p11--12--14------12--12---------12----------14--12--
G|------11------11--------------------------------------------------------------------
D|------------------------------------------------------------------------------------
A|------------------------------------------------------------------------------------
E|------------------------------------------------------------------------------------

Stave 6:

E|-------------------------------------11----------12------12--11-----------------------------------------
B|--11----------12--11--12p11--12--14------------------------------14--12-----11------11------11--12--14--
G|------11--11-----------------------------11--13------11-------------------------11------11--------------
D|--------------------------------------------------------------------------------------------------------
A|--------------------------------------------------------------------------------------------------------
E|--------------------------------------------------------------------------------------------------------

Stave 7:

E|-----------------11----------------------------------------------------------------------------------
B|--12p11--12--14----------14----------12----------11------11--12--11----------------9-----------9-----
G|-----------------------------14----------13----------11--------------13--11--9--------9-----9-----9--
D|---------------------14----------14----------14------------------------------------------9-----------
A|-----------------------------------------------------------------------------------------------------
E|-----------------------------------------------------------------------------------------------------

Stave 8:

E|-----------------------------------------------------------------------------
B|--10--10--10--9------------11--------------11------12--12--12p11-------------
G|-----------------------11------11------11------11----------------------------
D|-----------------9/11--------------11----------------------------------------
A|---------------------------------------------------------------------2--3/4--
E|-----------------------------------------------------------------------------

http://www.guitartabcreator.com
Guitar Tab Creator is intended to store guitar tab created through the tool. It currently does not support in-line text editing. Any text you place in here will be lost. If you need to comment on your tab, please use the "Tab Notes" section located below.