Sound will begin in 5 seconds

they love each other feb 77 swing

01234567891011121314151617181920212223
E
B
G
D
A
E
B
0 1 2 3 4 5 6 7 8 9 10 11 12 13 14 15 16 17 18 19 20 21 22 23
Song Science #1: How Pros Use 6 Chords to Write Hit Songs
(/) Slide Up  (\) Slide Down  (h) Hammer On  (p) Pull Off  (b) Bend (r) Release (v) Vibrato

Stave 1:

E|--------------------------------------------------------------------------------17--16--15------
B|--------------------------------------------------------------------15------15--------------18--
G|--------4-----7--5--4-----------4--------4------------------16--16------16----------------------
D|--5--5-----5-----------7--5--7-----5--7-----5---------------------------------------------------
A|-----------------------------------------------5-----16/17--------------------------------------
E|------------------------------------------------------------------------------------------------

Stave 2:

E|-----------------------------------------------------------------------------------------
B|--20p19p18--17----------------------------17------17--18---------------------------------
G|----------------17------19b21r19------19------19----------17h19--17----------17----------
D|--------------------17------------19---------------------------------19--17------19--19--
A|-----------------------------------------------------------------------------------------
E|-----------------------------------------------------------------------------------------

Stave 3:

E|-------------17--19--15--16--17---------------15---------------------------------
B|--21\20--20----------------------15--16--17v------17------15----------15--17\15--
G|------------------------------------------------------16------15--16-------------
D|---------------------------------------------------------------------------------
A|---------------------------------------------------------------------------------
E|---------------------------------------------------------------------------------

Stave 4:

E|------------------------------------------------------------------------------------------------------
B|--------------15-----------------------------12h13p12------12----------------------------------12--13p
G|--16--17--18------15h16--14--------------14------------14------14------------------14--12--12---------
D|-----------------------------17--15--17----------------------------15----------14---------------------
A|-----------------------------------------------------------------------15--15-------------------------
E|------------------------------------------------------------------------------------------------------

Stave 5:

E|-----------------------------------------------------------------------------15--12------------------
B|------12---------------------14----------14----------14--15b17r15--15p14p13----------15--12----------
G|--14------14p12----------14----------14----------14------------------------------------------14--12--
D|-----------------14--14----------14----------14------------------------------------------------------
A|-----------------------------------------------------------------------------------------------------
E|-----------------------------------------------------------------------------------------------------

Stave 6:

E|----------13--12b14r12---------------------------------------------------------------------------
B|------------------------13----------------------12-----11/12---------------------12------11--10--
G|--13--14--------------------12----------12--12----------------14--12-----------------------------
D|--------------------------------13--14--------------------------------14--13p12------11----------
A|-------------------------------------------------------------------------------------------------
E|-------------------------------------------------------------------------------------------------

Stave 7:

E|------------------------------------------------------------------------------8--10--11/12--
B|------10--8---------8-------8--8--------10---------11--11/12--------------10----------------
G|-------------9------------------------------------------------------------------------------
D|--10------------10-----8/9--------9/10------10/11-------------12--12--12--------------------
A|--------------------------------------------------------------------------------------------
E|--------------------------------------------------------------------------------------------

Stave 8:

E|--12--12--12--12--12--12--10--------------15--17--17b19r17p15--17------15------15--15--
B|------------------------------12------12---------------------------17------17----------
G|----------------------------------12---------------------------------------------------
D|---------------------------------------------------------------------------------------
A|---------------------------------------------------------------------------------------
E|---------------------------------------------------------------------------------------

http://www.guitartabcreator.com
Guitar Tab Creator is intended to store guitar tab created through the tool. It currently does not support in-line text editing. Any text you place in here will be lost. If you need to comment on your tab, please use the "Tab Notes" section located below.