Sound will begin in 5 seconds

tennessee jed may 3 72 paris part 2

01234567891011121314151617181920212223
E
B
G
D
A
E
B
0 1 2 3 4 5 6 7 8 9 10 11 12 13 14 15 16 17 18 19 20 21 22 23
Song Science #1: How Pros Use 6 Chords to Write Hit Songs
(/) Slide Up  (\) Slide Down  (h) Hammer On  (p) Pull Off  (b) Bend (r) Release (v) Vibrato

Stave 1:

E|-----------------------------------------------------------------------------------------------------
B|--------------------------------------6--------------------------------------------------------------
G|-----------------------------------------------------------------------------------------------------
D|--3--3--3--5/7--5--3--5p3-----3--5/7--------7\5--3--------3--6p5p3-----3--3--6\5--5b6r5--3--------3--
A|---------------------------5------------------------3--5------------5-----------------------5--5-----
E|-----------------------------------------------------------------------------------------------------

Stave 2:

E|----------------------------------------------------------------------------------
B|-----------------------------------------------------------------3--5--5b6--5--3--
G|------------------------------------------------------------2/4-------------------
D|-----3--4--4--4/5-----7b8r7--5-----5-----7/9----------5--5------------------------
A|--5-----------------------------7-----7----------5/7------------------------------
E|----------------------------------------------------------------------------------

Stave 3:

E|-------------------------------------------------------------------------------------------------
B|-------3--3------------------------------------------------8--5-------------------------8--8--8--
G|--2/4--------4-------------------------------5--7--9\7--5--------7b9r7--5--5-------7/9-----------
D|----------------8\7--5-------5--7/9--8\7--5-----------------------------------5h7----------------
A|------------------------5h7----------------------------------------------------------------------
E|-------------------------------------------------------------------------------------------------

Stave 4:

E|--------------10b12r10--8--10p8------10b12r10--8-----10b12-----12r10--12r10--8--8------8--10b12--
B|--10p8-----8---------------------10------------------------------------------------10------------
G|--------9----------------------------------------------------------------------------------------
D|-------------------------------------------------------------------------------------------------
A|-------------------------------------------------------------------------------------------------
E|-------------------------------------------------------------------------------------------------

Stave 5:

E|--12p10--8--10------8--10p8--12r10--8------8---------------------------------------------8--7/8--
B|----------------10---------------------10----------8--10p8-----8--10-----8--10p8--8--10----------
G|----------------------------------------------7/9-----------9---------9--------------------------
D|-------------------------------------------------------------------------------------------------
A|-------------------------------------------------------------------------------------------------
E|-------------------------------------------------------------------------------------------------

Stave 6:

E|--------------10b12r10--8-----------10b12r10--10b12r10--8------10b12--10b12--10b12r8--10--10p8--
B|--10p8-----8---------------8h10----------------------------10-----------------------------------
G|--------9---------------------------------------------------------------------------------------
D|------------------------------------------------------------------------------------------------
A|------------------------------------------------------------------------------------------------
E|------------------------------------------------------------------------------------------------

Stave 7:

E|--10--12\10p8--10------8--------------------------------8--8---------------------------------
B|-------------------10-----10p8------10--10--8--6--8b10--------8b10p6--8b10r8--6--8--10\8--6--
G|--------------------------------10-----------------------------------------------------------
D|---------------------------------------------------------------------------------------------
A|---------------------------------------------------------------------------------------------
E|---------------------------------------------------------------------------------------------

Stave 8:

E|-----------------------8---------------------------------------------------------------------
B|--8--10\8--6--8--8b10-----8--8b10--10--10r8--6--8--8b10r8--6--8--8--8b10r8--6--8--8b10r8--6--
G|---------------------------------------------------------------------------------------------
D|---------------------------------------------------------------------------------------------
A|---------------------------------------------------------------------------------------------
E|---------------------------------------------------------------------------------------------

Stave 9:

E|--------8-----------------8------------------10-------------------10-------------------10--
B|--8b10-----10r8--6--8b10-----10r8--6--10b12------12p10--8--10b12------12r10--8--10b12------
G|-------------------------------------------------------------------------------------------
D|-------------------------------------------------------------------------------------------
A|-------------------------------------------------------------------------------------------
E|-------------------------------------------------------------------------------------------

Stave 10:

E|--10---------10--13------10-----------------11b13--13--15--13--13------15b17--17--17r15--15--
B|------12r10----------13------15\13--11-----------------------------15------------------------
G|----------------------------------------12---------------------------------------------------
D|---------------------------------------------------------------------------------------------
A|---------------------------------------------------------------------------------------------
E|---------------------------------------------------------------------------------------------

Stave 11:

E|--15--15--15-----15--15--15--15--15-------------------------------
B|------------------------------------------------------------------
G|-------------------------------------7--7b9r7--5------------------
D|--------------------------------------------------7---------------
A|-----------------------------------------------------7\5--7\5--3--
E|------------------------------------------------------------------

http://www.guitartabcreator.com
Guitar Tab Creator is intended to store guitar tab created through the tool. It currently does not support in-line text editing. Any text you place in here will be lost. If you need to comment on your tab, please use the "Tab Notes" section located below.