Sound will begin in 5 seconds

tennessee jed may 3 72 paris

01234567891011121314151617181920212223
E
B
G
D
A
E
B
0 1 2 3 4 5 6 7 8 9 10 11 12 13 14 15 16 17 18 19 20 21 22 23
Song Science #1: How Pros Use 6 Chords to Write Hit Songs
(/) Slide Up  (\) Slide Down  (h) Hammer On  (p) Pull Off  (b) Bend (r) Release (v) Vibrato

Stave 1:

E|--------------------------------------------------------------------------------------------------------
B|--------------------------------------------------------------------------------------------------------
G|-------5--------5----------5-----5--7b9-----7b9r7--5----------------------------------------------------
D|--5/7--------7--------6/7-----7-----------------------7--5----------------------------------------------
A|------------------------------------------------------------7/5--3h5-------3--3-----3--5--7r5--3--------
E|----------------------------------------------------------------------3/5--------5----------------5--3--

Stave 2:

E|-----------------------------------------------------------------------------------------8--
B|-------------------------------------------------------------------5h6p5--6b8--6b8--6b8-----
G|-------5--9r7--5----------5-----------------------------5--7p5------------------------------
D|--5/7-------------7---------------------5/7--5--7p5-------------7---------------------------
A|---------------------5/7-----7\5--3------------------7--------------------------------------
E|-------------------------------------5------------------------------------------------------

Stave 3:

E|-------------------------------------------------------------------------------------------------
B|----------------------------------6b8------------------------------------------------------------
G|--7b9r7--5--7b9r7--5-------------------9r7--5--7b9r7--5------------------------------------------
D|----------------------5--7--5----------------------------7--5-----5--7--5------------------------
A|---------------------------------------------------------------7-----------7--3--5b6--3-------1--
E|-----------------------------------------------------------------------------------------5\3-----

Stave 4:

E|---------------------------------------------
B|---------------------------------------------
G|---------------------------------------------
D|-------------2/3--3--3--3--3--5/7--5--3h5p3--
A|---------------------------------------------
E|--5\3--1-------------------------------------

http://www.guitartabcreator.com
Guitar Tab Creator is intended to store guitar tab created through the tool. It currently does not support in-line text editing. Any text you place in here will be lost. If you need to comment on your tab, please use the "Tab Notes" section located below.