Sound will begin in 5 seconds

tangeld up in blue jgb 7/9/77 solo 2 part 2

01234567891011121314151617181920212223
E
B
G
D
A
E
B
0 1 2 3 4 5 6 7 8 9 10 11 12 13 14 15 16 17 18 19 20 21 22 23
Song Science #1: How Pros Use 6 Chords to Write Hit Songs
(/) Slide Up  (\) Slide Down  (h) Hammer On  (p) Pull Off  (b) Bend (r) Release (v) Vibrato

Stave 1:

E|---------17---------17--15------17--15------17--17--17--16b18r16--15---------17------15--------------
B|--15/17---------17----------17----------17----------------------------16h17------17------17--16--15--
G|-----------------------------------------------------------------------------------------------------
D|-----------------------------------------------------------------------------------------------------
A|-----------------------------------------------------------------------------------------------------
E|-----------------------------------------------------------------------------------------------------

Stave 2:

E|----------------------------------------------------------------------------------------------------
B|--14--14h15p14------14---------14-----------------------------------------------------14h15p14------
G|----------------16------15h16------16--15--14---------14------------------14--15--16------------16--
D|-----------------------------------------------15h16----------14--15--16----------------------------
A|----------------------------------------------------------17----------------------------------------
E|----------------------------------------------------------------------------------------------------

Stave 3:

E|--------------------------------------------------------------12-----------------
B|--14----------------------------------12----------12--13--14------14p12------12--
G|------16p14------14-----------------------12--14-------------------------14------
D|-------------16------16\14--12h14p12---------------------------------------------
A|---------------------------------------------------------------------------------
E|---------------------------------------------------------------------------------

Stave 4:

E|---------12-------------------------------------------------------------------------------------
B|--13b15------15r13--------------------12-------------------------------------10------10---------
G|--------------------14p12------12h14------14p12------12--12--------------11------11------11/12--
D|---------------------------14--------------------14----------14--13--12-------------------------
A|------------------------------------------------------------------------------------------------
E|------------------------------------------------------------------------------------------------

Stave 5:

E|---------------------------------------------------------------------------------------------
B|--10-----------------10-----------------12--12--12---------14-----------------14-------------
G|------12p11------11------11------------------------------------14------14h16------16p14------
D|-------------12--------------12--12/14--------------14/16----------16--------------------16--
A|---------------------------------------------------------------------------------------------
E|---------------------------------------------------------------------------------------------

Stave 6:

E|-------------------------------------------------------------------------------------------------
B|--14-----------------------------------10---------12--------------12------14---------14------14--
G|-----------------------------------11-----------------13------13------13-------------------------
D|------16\14--12--13--14\12--11h12----------12/14----------14------------------14/16------16------
A|-------------------------------------------------------------------------------------------------
E|-------------------------------------------------------------------------------------------------

Stave 7:

E|----------------------------------------------------------------------------------------------
B|---------14---------------------12--------------10----------10-----10---------------------12--
G|--16p14---------------------12------14------11----------11-------------11-------------13------
D|-------------16\14--12--12--------------12----------12---------------------12/14--14----------
A|----------------------------------------------------------------------------------------------
E|----------------------------------------------------------------------------------------------

Stave 8:

E|-----------------------------------------------------------------------------------------
B|----------12-------------14----------14----------12----------12----------12----------10--
G|------13-------------14----------14----------13----------13----------12----------11------
D|--14-------------14----------14----------14----------14----------12----------12----------
A|-----------------------------------------------------------------------------------------
E|-----------------------------------------------------------------------------------------

Stave 9:

E|--------------------
B|--------5--------5--
G|-----6--------7-----
D|--7--------7--------
A|--------------------
E|--------------------

http://www.guitartabcreator.com
Guitar Tab Creator is intended to store guitar tab created through the tool. It currently does not support in-line text editing. Any text you place in here will be lost. If you need to comment on your tab, please use the "Tab Notes" section located below.