Sound will begin in 5 seconds

tangeld up in blue jgb 7/9/77 solo 2 part 1

01234567891011121314151617181920212223
E
B
G
D
A
E
B
0 1 2 3 4 5 6 7 8 9 10 11 12 13 14 15 16 17 18 19 20 21 22 23
Song Science #1: How Pros Use 6 Chords to Write Hit Songs
(/) Slide Up  (\) Slide Down  (h) Hammer On  (p) Pull Off  (b) Bend (r) Release (v) Vibrato

Stave 1:

E|----------------------------------------------------------------------------------------------
B|-----------10-----------------------------------------------------------------8-----------10--
G|--------9------11--10--9------9---------9----------------------------------7-----------9------
D|--9/11--------------------11-----10h11-----11\9--7h9--7--7-----7--8--9-----------9/11---------
A|------------------------------------------------------------9---------------------------------
E|----------------------------------------------------------------------------------------------

Stave 2:

E|--------------------------------------------------------------------------------------------
B|--------------------------------------------------------------------------------------------
G|--11--9------9-------------------------7----------------------------------------------------
D|---------11-----11--10--9-----7--8--9-----9--8--7-----7-------7--------------------------7--
A|---------------------------9-----------------------9-----8h9-----9\7--5----------7--7h9-----
E|-------------------------------------------------------------------------5--7/9-------------

Stave 3:

E|-------------------------------------------------------------------------------------------------------
B|----------8--8--8--------10----------------------------------------------------------------------------
G|-------------------9/11------11--9--9---------9-----------------------9------9h11p9------9-------------
D|--7/9--9-------------------------------10h11-----11\9--7--9-----9/11-----11----------11-----11--10--9--
A|-------------------------------------------------------------------------------------------------------
E|-------------------------------------------------------------------------------------------------------

Stave 4:

E|----------------------------------------------------------------------------------------------
B|----------------------------7--8--7-----------------------------9--10----------------------9--
G|-------------------------7-----------9p7-----7--------9----------------11--9------9-----9-----
D|--7--9--8--7-----7------------------------9-----9/11-----11--9----------------11-----9--------
A|--------------9-----8h9-----------------------------------------------------------------------
E|----------------------------------------------------------------------------------------------

Stave 5:

E|------------------------------------------------------------------------------------------------
B|------------------------------7h8-----------7-----7----------9-----9--10p9------9---------------
G|--9------------------------7-------------7-----------7----------9-----------11-----11p9------9--
D|-----11--9--7--9--7-----7----------9--7--------7--------7/9------------------------------11-----
A|---------------------9--------------------------------------------------------------------------
E|------------------------------------------------------------------------------------------------

Stave 6:

E|-------------------------------------------------------------------------------------------------
B|----------------------------------------------------------9--------9--------------------------3--
G|---------9---------------------------------------------9--------9--------------------------4-----
D|--10h11-----11--11\9--7-----7-------7---------------9--------9--------9--8--7--6--------5--------
A|-------------------------9-----8h9-----9\7--5--5/7--------------------------------7--------------
E|-------------------------------------------------------------------------------------------------

Stave 7:

E|--------------------
B|--------3--------2--
G|-----2--------2-----
D|--4--------2--------
A|--------------------
E|--------------------

http://www.guitartabcreator.com
Guitar Tab Creator is intended to store guitar tab created through the tool. It currently does not support in-line text editing. Any text you place in here will be lost. If you need to comment on your tab, please use the "Tab Notes" section located below.