Sound will begin in 5 seconds

tangeld up in blue jgb 7/9/77 part 2

01234567891011121314151617181920212223
E
B
G
D
A
E
B
0 1 2 3 4 5 6 7 8 9 10 11 12 13 14 15 16 17 18 19 20 21 22 23
Song Science #1: How Pros Use 6 Chords to Write Hit Songs
(/) Slide Up  (\) Slide Down  (h) Hammer On  (p) Pull Off  (b) Bend (r) Release (v) Vibrato

Stave 1:

E|---------------------------------------------------------------------------------------
B|------------14------14------12------12-------------------------------------------------
G|----------------------------------------14--13--12-----------------------------14--12--
D|--11/12/14------14------12------12------------------14--13--12\11------11--12----------
A|-------------------------------------------------------------------12------------------
E|---------------------------------------------------------------------------------------

Stave 2:

E|-------------------------------------------------------------------------------------------9--10--12p
B|----------------14------14------12-----------------------------10--------------12------12------------
G|--12\11-----------------------------14--13--12------12-------------11------11------11----------------
D|---------13/14------14------14------------------14------14\12----------12----------------------------
A|-----------------------------------------------------------------------------------------------------
E|-----------------------------------------------------------------------------------------------------

Stave 3:

E|-------------------------------------------------12---------10--12--10---------12------------
B|--14p13p12--12p11p10------10------10--12--12b14------14r12--------------12b14------12b14r12--
G|----------------------11------11-------------------------------------------------------------
D|---------------------------------------------------------------------------------------------
A|---------------------------------------------------------------------------------------------
E|---------------------------------------------------------------------------------------------

Stave 4:

E|---------12------14--12------10-------------12b14--10------10p9h10------9-----------------------------
B|--12/14------14----------14------12p10-----------------12-----------12-----12p10------10--------------
G|----------------------------------------12----------------------------------------11------7--9--7--9--
D|------------------------------------------------------------------------------------------------------
A|------------------------------------------------------------------------------------------------------
E|------------------------------------------------------------------------------------------------------

Stave 5:

E|---------------------------------------------------------------------------------------------------
B|----------------9--------9--------9-------------10---------10------------10--------9------------9--
G|--6/7--------9--------9--------9------------11----------9-------------9---------9------------9-----
D|-------9--9--------9--------9-----------11----------11------------11---------9------------9--------
A|-------------------------------------9------------------------------------------------11-----------
E|---------------------------------------------------------------------------------------------------

Stave 6:

E|--------------------------------------------------------------------------------------------------------
B|--------7----------------------9--------9-------------10----------------10---------10-------------------
G|-----7----------7-----------9--------9------------11------9----------9----------9--------------------9--
D|--7----------------------9--------9-----------11-------------11--11---------11--------------------9-----
A|-----------8/9-----9/11--------------------9-------------------------------------------9--10--11--------
E|--------------------------------------------------------------------------------------------------------

Stave 7:

E|---------------------------------------------------12----------12----------------------------
B|------------9--------7-----------9-------------12----------12--------------14----------12\0--
G|---------9--------7-----------9-----11/13--13----------13--------------14----------13--------
D|------9--------7-----------9---------------------------------------14----------14------------
A|--11-----------------------------------------------------------------------------------------
E|---------------------------------------------------------------------------------------------

http://www.guitartabcreator.com
Guitar Tab Creator is intended to store guitar tab created through the tool. It currently does not support in-line text editing. Any text you place in here will be lost. If you need to comment on your tab, please use the "Tab Notes" section located below.