Sound will begin in 5 seconds

tangeld up in blue jgb 7/9/77

01234567891011121314151617181920212223
E
B
G
D
A
E
B
0 1 2 3 4 5 6 7 8 9 10 11 12 13 14 15 16 17 18 19 20 21 22 23
Song Science #1: How Pros Use 6 Chords to Write Hit Songs
(/) Slide Up  (\) Slide Down  (h) Hammer On  (p) Pull Off  (b) Bend (r) Release (v) Vibrato

Stave 1:

E|---------------------------------------------------------------------------------
B|---------------------------------------------------------------------------------
G|--------9--11--10--9------9---------9-------------------------------9------------
D|--9/11----------------11-----10h11-----11\9--7-----7--9p7-----9/11-----11--11\9--
A|------------------------------------------------9----------9---------------------
E|---------------------------------------------------------------------------------

Stave 2:

E|------------------------------------------------------------------------------------------------
B|--------------10--------------------------------------------------------------------------------
G|--7--------9------11--9--9---------9------------------------------------------------------------
D|-----9/11-------------------10h11-----10\9--7-----7--9-----7-------7----------------------------
A|-----------------------------------------------9--------9-----8h9-----9--7--9\7--5-----5--7--7--
E|------------------------------------------------------------------------------------7-----------

Stave 3:

E|--------------------------------------------------------------------------------------------
B|---------------------------------------------------------5--7--8-----8--7--5-------5--------
G|--6-------------------------------------------5h6-----6-----------------------5h6-----6-----
D|-----------------5-----7p5-----5-----5--6--7-------7-------------------------------------7--
A|-----7--7-----7-----7-------7-----7---------------------------------------------------------
E|--------------------------------------------------------------------------------------------

Stave 4:

E|--------------------------------------------------------------------------------------------------------
B|------------------------------------------------------------7---------------------10----------------10--
G|--5--4---------------------------------------------7--7--9-----9/11--9--9------9------9------9--11------
D|--------7-----5h7p5-----------------7--7-----7--9--------------------------11------------11-------------
A|-----------7---------7--5--5-----9--------9-------------------------------------------------------------
E|--------------------------------------------------------------------------------------------------------

Stave 5:

E|------------------------------------------------------------------------------------------------
B|------------------------------------7-----------------------10-----10--10-----------------------
G|--9--11--------------------------7-----9--8--7-----7--9/11------9----------9h11--9--------------
D|---------9--9--11\9--7-----7--9-----------------9-----------------------------------11\9--7-----
A|------------------------9--------------------------------------------------------------------9--
E|------------------------------------------------------------------------------------------------

Stave 6:

E|-----------------------------------------------------------------------------------------------
B|---------------------------------------9--------------9-------------------3--------3--------1--
G|--------7-------------7----------------------9-----9-----9-----7\0-----4--------2--------1-----
D|--7--9------------------------------------9-----9-----------9-------5--------4--------1--------
A|-----------9\7--5--5-----5--5--6--6/7----------------------------------------------------------
E|-----------------------------------------------------------------------------------------------

http://www.guitartabcreator.com
Guitar Tab Creator is intended to store guitar tab created through the tool. It currently does not support in-line text editing. Any text you place in here will be lost. If you need to comment on your tab, please use the "Tab Notes" section located below.