Sound will begin in 5 seconds

supplication part 2

01234567891011121314151617181920212223
E
B
G
D
A
E
B
0 1 2 3 4 5 6 7 8 9 10 11 12 13 14 15 16 17 18 19 20 21 22 23
Song Science #1: How Pros Use 6 Chords to Write Hit Songs
(/) Slide Up  (\) Slide Down  (h) Hammer On  (p) Pull Off  (b) Bend (r) Release (v) Vibrato

Stave 1:

E|--12b14r12--10------10--12p10h12--13p12h13--13/14-----13--13/14------------------------------
B|----------------13-----------------------------------------------15--13--12------------------
G|-----------------------------------------------------------------------------14--13--12--14--
D|---------------------------------------------------------------------------------------------
A|---------------------------------------------------------------------------------------------
E|---------------------------------------------------------------------------------------------

Stave 2:

E|---------------------------------------------------------14--15--16--17--13/14------
B|-------------------------------------------------15--15-------------------------15--
G|------10h11-------------------------------------------------------------------------
D|--12---------12--11--10-------------------------------------------------------------
A|-------------------------12--11--10--8/9--------------------------------------------
E|------------------------------------------10----------------------------------------

Stave 3:

E|-----------------------------------------------------------------------------------------------------
B|--14--13------13--15b17--15v--13-------------------------10------------------------------------------
G|----------14----------------------14--13--12------10/11------12--10h11-------------------------------
D|----------------------------------------------12------------------------12--11--10-------------------
A|------------------------------------------------------------------------------------12p11h12--9------
E|-------------------------------------------------------------------------------------------------10--

Stave 4:

E|--18\19--17------------17------------------------------------------------------------------------
B|-------------19p18h19------19p18----------17-----------------------------------------------------
G|----------------------------------19--19------19--18--17-------------------------------------17--
D|----------------------------------------------------------19--18--17--16----------16--17/19------
A|--------------------------------------------------------------------------17--17-----------------
E|-------------------------------------------------------------------------------------------------

Stave 5:

E|--------------------------------------------------------------------------
B|--------------17--20--19--18--17------17----------------------------------
G|------17--19----------------------19------19--17--------------17----------
D|--19----------------------------------------------19--17--19------19--18--
A|--------------------------------------------------------------------------
E|--------------------------------------------------------------------------

Stave 6:

E|---------------------------------------12--10----------------------------------------------------
B|-------------17--20--19--18--17----------------13--12p10--12-------------------------13--13--13--
G|---------19---------------------------------------------------12--14p12------12--14--------------
D|--10/19------------------------------------------------------------------14----------------------
A|-------------------------------------------------------------------------------------------------
E|-------------------------------------------------------------------------------------------------

Stave 7:

E|--12----------12----------15--12-------------12----------------------------------------
B|------13----------13--------------13-------------13------15------13------12h13p12------
G|----------14----------14--------------12-------------14------14------14------------14--
D|---------------------------------------------------------------------------------------
A|---------------------------------------------------------------------------------------
E|---------------------------------------------------------------------------------------

Stave 8:

E|----------------------
B|----------------------
G|--12--14--12----------
D|--------------12--14--
A|----------------------
E|----------------------

http://www.guitartabcreator.com
Guitar Tab Creator is intended to store guitar tab created through the tool. It currently does not support in-line text editing. Any text you place in here will be lost. If you need to comment on your tab, please use the "Tab Notes" section located below.