Sound will begin in 5 seconds

supplication

01234567891011121314151617181920212223
E
B
G
D
A
E
B
0 1 2 3 4 5 6 7 8 9 10 11 12 13 14 15 16 17 18 19 20 21 22 23
Song Science #1: How Pros Use 6 Chords to Write Hit Songs
(/) Slide Up  (\) Slide Down  (h) Hammer On  (p) Pull Off  (b) Bend (r) Release (v) Vibrato

Stave 1:

E|-------------------------------------------------------5--------------------------------------5--
B|----------10-------------9---------10-------------6b8-----8r6------------------------------5-----
G|------12------10h11---------10/11----------11------------------7--5---------------------5--------
D|--12-----------------12----------------12------7---------------------7--5\4-----3--5/7-----------
A|-----------------------------------------------------------------------------5-------------------
E|-------------------------------------------------------------------------------------------------

Stave 2:

E|---------------------------------------------------------------------------------------------
B|--8--7--5------------------------------------------------------------------------10--12--12--
G|-----------7--5-----5--------5--------------------11--12--11------10h11------11--------------
D|-----------------7-----7--------7--6--5--4--------------------12---------12------------------
A|--------------------------------------------5------------------------------------------------
E|---------------------------------------------------------------------------------------------

Stave 3:

E|----------------------------------------12-------------------------------------------------------------
B|--13/15--12--13------12---------12--13------13---------------------------------------------------------
G|-----------------14------13h14------------------14--12\11------12---------12--14p13p12p11--------------
D|-----------------------------------------------------------12------13h14-------------------12--12--12--
A|-------------------------------------------------------------------------------------------------------
E|-------------------------------------------------------------------------------------------------------

Stave 4:

E|--------------------------------------------------------------------------------------------------------
B|--------------------------------------------------------------------------------------------------------
G|------------------11h12p11--------------11------11--14p12p11--12-----11---------------------------------
D|--10------12--14------------14--12--14------12---------------------------12--14--12\10--10------10--12--
A|------12------------------------------------------------------------------------------------12----------
E|--------------------------------------------------------------------------------------------------------

Stave 5:

E|-------------------------------------------------------------------------------------
B|-------------------------------------------------------------------------------------
G|---------------------------9---------------------------------------------------------
D|--10--9-------------9--10-----12-----10\9--------------9-----------------------------
A|---------9--10--12-------------------------10--10--12-----10------9--10--12--12------
E|--------------------------------------------------------------12-----------------10--

Stave 6:

E|--------------------------------------------------------------12------------------------------------
B|--------------------------------------------------10---------------------13--10---------------------
G|-------------9------------------10/11------10/11------12--12------10/11----------11------10h11------
D|---------10-----9--9/10--10------------12--------------------------------------------12---------12--
A|------9---------------------------------------------------------------------------------------------
E|--10------------------------------------------------------------------------------------------------

Stave 7:

E|------------------------------------------------------------------------------------------------
B|------------------------------13p12h13--15--15--15--13----------------------10------13------12--
G|--------------------------------------------------------14p13h14-----12b14------14------12------
D|--10--------------------------------------------------------------------------------------------
A|------12--11--10--8/9---------------------------------------------------------------------------
E|-----------------------10-----------------------------------------------------------------------

Stave 8:

E|----------------------------------------------------------------------------------------------------
B|--10----------------------------------------12------10----------------------------------------------
G|------10h11---------10/11--------10-----12------11------10/11----------------------------12b14--12--
D|-------------12--9---------10\9--------------------------------12--10-------------------------------
A|-----------------------------------------------------------------------12--11--10\9-----------------
E|-------------------------------------------------------------------------------------10-------------

Stave 9:

E|----------10----------------------------------------------11/12--10------10--10--12--13/14--
B|--------------13p12p10-------------10--------------------------------13---------------------
G|--12--14----------------12--10/11------11---------------------------------------------------
D|-------------------------------------------12--10-------------------------------------------
A|---------------------------------------------------12---------------------------------------
E|--------------------------------------------------------------------------------------------

Stave 10:

E|--14r12--10------10---------------------------------------------------
B|-------------12------13b15r13--10-------------------------------------
G|-----------------------------------12--10------10h11------------------
D|-------------------------------------------12---------12--11--10------
A|------------------------------------------------------------------12--
E|----------------------------------------------------------------------

Stave 11:

E|--
B|--
G|--
D|--
A|--
E|--

http://www.guitartabcreator.com
Guitar Tab Creator is intended to store guitar tab created through the tool. It currently does not support in-line text editing. Any text you place in here will be lost. If you need to comment on your tab, please use the "Tab Notes" section located below.