Sound will begin in 5 seconds

stella 10 21 78 winterland PART 2

01234567891011121314151617181920212223
E
B
G
D
A
E
B
0 1 2 3 4 5 6 7 8 9 10 11 12 13 14 15 16 17 18 19 20 21 22 23
Song Science #1: How Pros Use 6 Chords to Write Hit Songs
(/) Slide Up  (\) Slide Down  (h) Hammer On  (p) Pull Off  (b) Bend (r) Release (v) Vibrato

Stave 1:

E|--------------------------------------------------------------------
B|----------------9--7--5-----------5h7--7b9r7--5--------7b9r7--5-----
G|-------------------------6--6--------------------4---------------6--
D|--6/7--9--9---------------------------------------------------------
A|--------------------------------------------------------------------
E|--------------------------------------------------------------------

Stave 2:

E|---------------------------------------------------------------------------------7--
B|--5--7--7/9--7--5-----------9b11r9--7--5--5--7--7b9-----5--7/9--9--9b11r9--9--9-----
G|-------------------6--4------------------------------6------------------------------
D|------------------------------------------------------------------------------------
A|------------------------------------------------------------------------------------
E|------------------------------------------------------------------------------------

Stave 3:

E|--------------------5v--7v--9v--12v------------------------------------------
B|-----7--9--7-------------------------14--12--14p12------9--10--12--14b16r14--
G|--9-----------9--7----------------------------------13-----------------------
D|-----------------------------------------------------------------------------
A|-----------------------------------------------------------------------------
E|-----------------------------------------------------------------------------

Stave 4:

E|------------------------------12--14--14/16--16--16p15p14--14--14--14b16--
B|--15b17--15b17--15b17r15--17----------------------------------------------
G|--------------------------------------------------------------------------
D|--------------------------------------------------------------------------
A|--------------------------------------------------------------------------
E|--------------------------------------------------------------------------

Stave 5:

E|--14p12--12--12--15--15--15b17--17--17--17--19--20b22--20--20---------17---------
B|---------------------------------------------------------------19b21------21r19--
G|---------------------------------------------------------------------------------
D|---------------------------------------------------------------------------------
A|---------------------------------------------------------------------------------
E|---------------------------------------------------------------------------------

Stave 6:

E|--17----------20--17--17--17--19--17p16--17--16----------17v--16--17--18--19--15/16----------
B|------19--17-------------------------------------19--17------------------------------17------
G|-----------------------------------------------------------------------------------------16--
D|---------------------------------------------------------------------------------------------
A|---------------------------------------------------------------------------------------------
E|---------------------------------------------------------------------------------------------

Stave 7:

E|--12-----------------------------12---------------------------------------12----------16--17b19--
B|------14--13--12------12---------------------------------------10--12/14------17--17-------------
G|------------------12------12/13------13--11--9h11p9--9-------------------------------------------
D|--------------------------------------------------------10h11------------------------------------
A|-------------------------------------------------------------------------------------------------
E|-------------------------------------------------------------------------------------------------

Stave 8:

E|--19r16--16--16---------17--17--19--17p19--17--15--20-------------------------------
B|-----------------19b21---------------------------------19b21--21r19--17--17--19b21--
G|------------------------------------------------------------------------------------
D|------------------------------------------------------------------------------------
A|------------------------------------------------------------------------------------
E|------------------------------------------------------------------------------------

Stave 9:

E|----------------------------------------------------------------------------------------
B|--19--19p17--17--17--17--14--14--14v--12--12--12--12p10--10--12--12/14--12--12--12------
G|----------------------------------------------------------------------------------------
D|----------------------------------------------------------------------------------------
A|------------------------------------------------------------------------------------14--
E|----------------------------------------------------------------------------------------

Stave 10:

E|--15/17--17--15--15--12--12--15--15--15--15--15b17--15--15--15--12--12--12----------
B|----------------------------------------------------------------------------14--12--
G|------------------------------------------------------------------------------------
D|------------------------------------------------------------------------------------
A|------------------------------------------------------------------------------------
E|------------------------------------------------------------------------------------

Stave 11:

E|--15b17--17--17--17--17r15--15--15--15p12--12--12--12--------------------------------12--12--
B|-------------------------------------------------------14--14--14p12--12--12--12h14----------
G|---------------------------------------------------------------------------------------------
D|---------------------------------------------------------------------------------------------
A|---------------------------------------------------------------------------------------------
E|---------------------------------------------------------------------------------------------

Stave 12:

E|--15--15--15h16--16--15--15--16--16--16--15--15--12----------12--12--12---------12--12------12------
B|-----------------------------------------------------14--12--------------12h14----------12----------
G|------------------------------------------------------------------------------------------------13--
D|----------------------------------------------------------------------------------------------------
A|----------------------------------------------------------------------------------------------------
E|----------------------------------------------------------------------------------------------------

Stave 13:

E|---------------------------------------12--12------12--------------12------
B|-------------------------------12--14----------14------14--12--14------14--
G|--11/13--11--11--9--11--11/13----------------------------------------------
D|---------------------------------------------------------------------------
A|---------------------------------------------------------------------------
E|---------------------------------------------------------------------------

Stave 14:

E|--------------------------------------------------------------------9----------------
B|--10---------10-------------------------------------9-----9--12--9-----12--9---------
G|------11--9------11--9------9--------------9-----9-----9----------------------12\11--
D|------------------------11-----11--9--7/9-----9--------------------------------------
A|-------------------------------------------------------------------------------------
E|-------------------------------------------------------------------------------------

Stave 15:

E|--------------12--15b17v--18--16--17--18--19--16h17p16-------------------------------
B|--12------12--------------------------------------------19--17h19--17h19--19b21--19--
G|------13-----------------------------------------------------------------------------
D|-------------------------------------------------------------------------------------
A|-------------------------------------------------------------------------------------
E|-------------------------------------------------------------------------------------

Stave 16:

E|----------------------------------19--18--17--16------16---------------------12--
B|------19--17--------------17----------------------17------14--13--12-------------
G|--18----------18--17--16------16--------------------------------------12/13------
D|---------------------------------------------------------------------------------
A|---------------------------------------------------------------------------------
E|---------------------------------------------------------------------------------

Stave 17:

E|--------------10------9-----------------14--12--9---------9--------------------------------
B|------------------11-----12--10--12b14-------------12b14-----14r12--10------10-------------
G|--13--13--12------------------------------------------------------------11------11--10--9--
D|-------------------------------------------------------------------------------------------
A|-------------------------------------------------------------------------------------------
E|-------------------------------------------------------------------------------------------

Stave 18:

E|----------------------------------------------------
B|--------------------------------------------9b11r9--
G|------9---------9-----------------------------------
D|--11-----10h11-----11--9--9--9--7--7--7--9----------
A|----------------------------------------------------
E|----------------------------------------------------

http://www.guitartabcreator.com
Guitar Tab Creator is intended to store guitar tab created through the tool. It currently does not support in-line text editing. Any text you place in here will be lost. If you need to comment on your tab, please use the "Tab Notes" section located below.