Sound will begin in 5 seconds

stella 10 21 78 winterland

01234567891011121314151617181920212223
E
B
G
D
A
E
B
0 1 2 3 4 5 6 7 8 9 10 11 12 13 14 15 16 17 18 19 20 21 22 23
Song Science #1: How Pros Use 6 Chords to Write Hit Songs
(/) Slide Up  (\) Slide Down  (h) Hammer On  (p) Pull Off  (b) Bend (r) Release (v) Vibrato

Stave 1:

E|--12--14--14/16--16--17--18--19---------------------16--16h17p16---------------------
B|---------------------------------16-----16--17--19----------------14--17--17--15b17--
G|-------------------------------------------------------------------------------------
D|-------------------------------------------------------------------------------------
A|-------------------------------------------------------------------------------------
E|-------------------------------------------------------------------------------------

Stave 2:

E|----------19b21v--19b21v--17--17--17h19--17--17------------18/19--19--19--17--15-------------------
B|--17--17-----------------------------------------17b19p17-------------------------17--16--17--17v--
G|---------------------------------------------------------------------------------------------------
D|---------------------------------------------------------------------------------------------------
A|---------------------------------------------------------------------------------------------------
E|---------------------------------------------------------------------------------------------------

Stave 3:

E|--12-----------------------------------------------------------------
B|------15--13--12--11---------------------------12--13--12--12h13p12--
G|----------------------12--11--10--9----------------------------------
D|-------------------------------------10------------------------------
A|---------------------------------------------------------------------
E|---------------------------------------------------------------------

Stave 4:

E|---------------------------------------------------------------------------------------
B|--11/12--14------------------12--------------------------------------------------------
G|-------------11------------------11--9--8------9--8------------------------------------
D|-----------------14--13--------------------11--------11--9--7--7h9--6--6h7p6-----6-----
A|-------------------------14---------------------------------------------------9-----7--
E|---------------------------------------------------------------------------------------

Stave 5:

E|----------19--------------------------------------------14--------------
B|--17--17------16--16h17p16------14--15v--15b16--15--17----------14v--14\
G|----------------------------16------------------------------14----------
D|------------------------------------------------------------------------
A|------------------------------------------------------------------------
E|------------------------------------------------------------------------

Stave 6:

E|-------------------------------------------------------------------------------
B|--11h12p11-------------------------------------------------------------13--11--
G|------------14--12--11------12--11----------11---------------------12----------
D|------------------------14----------14--12------12-------------14--------------
A|----------------------------------------------------14\13--15------------------
E|-------------------------------------------------------------------------------

http://www.guitartabcreator.com
Guitar Tab Creator is intended to store guitar tab created through the tool. It currently does not support in-line text editing. Any text you place in here will be lost. If you need to comment on your tab, please use the "Tab Notes" section located below.