Sound will begin in 5 seconds

stagger lee 3/24/93

01234567891011121314151617181920212223
E
B
G
D
A
E
B
0 1 2 3 4 5 6 7 8 9 10 11 12 13 14 15 16 17 18 19 20 21 22 23
Song Science #1: How Pros Use 6 Chords to Write Hit Songs
(/) Slide Up  (\) Slide Down  (h) Hammer On  (p) Pull Off  (b) Bend (r) Release (v) Vibrato

Stave 1:

E|-----------------------------------------------------------------------------------------------------
B|--------4--------5--------7-----------5--------6b8--5-----------------------------5--3-----------12--
G|-----4--------5--------7-----------5-----7-------------7--6\5-----3h4-------------------4------------
D|--4--------5--------7--------5--5------------------------------5-------5-----3/5-----------5/12------
A|-----------------------------------------------------------------------------------------------------
E|-----------------------------------------------------------------------------------------------------

Stave 2:

E|-------------------------------------------------------------------------------------------
B|--12p11p10------10-------------10--------------12--12--10-------------------8-----------8--
G|------------12------12--10h11------11----------------------11------------7-----------7-----
D|---------------------------------------12--12------------------12-----9--------9--9--------
A|-------------------------------------------------------------------------------------------
E|-------------------------------------------------------------------------------------------

Stave 3:

E|-----------------------------------------------------------------------------------------------
B|-----------------------------------------------------------------------8---------8------10/12--
G|------------------7--10p9--7-----7-----9b11r9p7-----7--7--7---------------9--------------------
D|--9------7--8--9--------------9-----9------------9--------------7--10--------10-----10---------
A|-----10----------------------------------------------------------------------------------------
E|-----------------------------------------------------------------------------------------------

Stave 4:

E|-----------------------------------------------------------------------------------------------------
B|------8---------8---------10--------------------8---------8------------8---------8---------8---------
G|---------9--------------------12p11----------------9----------------7---------------9----------------
D|--10--------10-----10/12-------------12-----10--------10-----10--9-----------10--------10-----10/12--
A|-----------------------------------------------------------------------------------------------------
E|-----------------------------------------------------------------------------------------------------

Stave 5:

E|-----------------------------------------------------------------------------------------------------
B|------13--13--15p13------13------15p13------15--15--14p13--13p12----------12---------------------12--
G|--14-----------------14------14---------14------------------------14--12------14--12------12h14------
D|--------------------------------------------------------------------------------------14-------------
A|-----------------------------------------------------------------------------------------------------
E|-----------------------------------------------------------------------------------------------------

Stave 6:

E|--------------------------------------------------------------------------------------------------
B|-----------------------------13------12--------------------------------------------8-----------8--
G|--12h14--12------12--------------12---------14p12h14--12h14--12-----------------9-----------7-----
D|-------------14------14--12--------------------------------------16r14--12--10--------9--9--------
A|--------------------------------------------------------------------------------------------------
E|--------------------------------------------------------------------------------------------------

Stave 7:

E|--------------------------------------------------------------------------------14--17--15--12------
B|--------12---------17--17--15------15--17--15--17b19r17--15------15--15--15---------------------13--
G|-------------------------------16----------------------------16-------------------------------------
D|--9/12------12/17-----------------------------------------------------------------------------------
A|----------------------------------------------------------------------------------------------------
E|----------------------------------------------------------------------------------------------------

Stave 8:

E|---------------------------------------------------12--12------15------------------------------------
B|--12h13p12----------12---------------------------------------------15--13p12----------13p12------13--
G|------------14--12------------------12h14--12--12----------12-----------------14--12---------14------
D|------------------------12--14--14-------------------------------------------------------------------
A|-----------------------------------------------------------------------------------------------------
E|-----------------------------------------------------------------------------------------------------

Stave 9:

E|--------------------------------------------------------------------------------------------------
B|--15--12-----------------13----------13------15---------------13--15------13------13----------15--
G|----------16r14--12----------12----------14---------------14----------14------14------14----------
D|---------------------14----------14-----------------7--7----------------------------------15------
A|--------------------------------------------------------------------------------------------------
E|--------------------------------------------------------------------------------------------------

Stave 10:

E|--------------------------------------------------------------------------------------------------------
B|---------15--17------15----------------------------15----------15--15--17p15--15--15--17b19r17--15------
G|--14/16----------16----------15h16---------------------16--16---------------------------------------17--
D|-------------------------17---------17-----17--17-------------------------------------------------------
A|--------------------------------------------------------------------------------------------------------
E|--------------------------------------------------------------------------------------------------------

Stave 11:

E|---------15--17--15--------------------------------------------------------------15--15----------
B|--17b19--------------19r17--15------15----------17------------15------17p15--------------17------
G|--------------------------------16----------17---------15h16------16---------16--------------16--
D|----------------------------------------17-------------------------------------------------------
A|-------------------------------------------------------------------------------------------------
E|-------------------------------------------------------------------------------------------------

Stave 12:

E|--14--------------------------------------------------------------------------------------------
B|----------17------15h17p15--17--17--19r17--15------15-----------13----------13--------------12--
G|------16------16-------------------------------16-------------------12------------------12------
D|----------------------------------------------------------7/14----------14------14--12----------
A|------------------------------------------------------------------------------------------------
E|------------------------------------------------------------------------------------------------

Stave 13:

E|-----------------------------------------------------------------------------------------------------
B|----------13----------13---------15-------------8---------8--------------10----------12----------12--
G|--------------12-----------------------------------9-----------------11----------12----------12------
D|--14--14----------14------14/16---------10--10--------10-----10--12----------12----------12----------
A|-----------------------------------------------------------------------------------------------------
E|-----------------------------------------------------------------------------------------------------

Stave 14:

E|-------------------------
B|------8---------8--------
G|---------9---------------
D|--10--------10-----------
A|-------------------0--5--
E|-------------------------

http://www.guitartabcreator.com
Guitar Tab Creator is intended to store guitar tab created through the tool. It currently does not support in-line text editing. Any text you place in here will be lost. If you need to comment on your tab, please use the "Tab Notes" section located below.