Sound will begin in 5 seconds

st stephen barton solo 2

01234567891011121314151617181920212223
E
B
G
D
A
E
B
0 1 2 3 4 5 6 7 8 9 10 11 12 13 14 15 16 17 18 19 20 21 22 23
Song Science #1: How Pros Use 6 Chords to Write Hit Songs
(/) Slide Up  (\) Slide Down  (h) Hammer On  (p) Pull Off  (b) Bend (r) Release (v) Vibrato

Stave 1:

E|---------------------------------------------------------------------------------------------
B|--------------------------------------5-----5-----7b9r7--5--------5--------------------------
G|--7h9--9-----9b11r9--7-----7-----4/6-----6-----6------------6--4-----4--6--4----------4h6p4--
D|----------9-------------9-----------------------------------------------------5h6--6---------
A|---------------------------------------------------------------------------------------------
E|---------------------------------------------------------------------------------------------

Stave 2:

E|-------------------------------------------------------------------12--12--11--14--12--11--10--
B|---------------------------------------------------5-------------------------------------------
G|-------4-------------------------------------4--6--------9--11/13------------------------------
D|--4/6-----5\4--2-----2--4/6--2-------2--4/6----------------------------------------------------
A|------------------4-------------3h4------------------------------------------------------------
E|-----------------------------------------------------------------------------------------------

Stave 3:

E|---------12----------------------------------9--------------------------------------------------------
B|--12/14------14\12--10---------12---------------12--9-------------12---------------------------9------
G|------------------------11/13------13\11--9------------11/13--13------11h13--13--13\11--9--11-----11--
D|------------------------------------------------------------------------------------------------------
A|------------------------------------------------------------------------------------------------------
E|------------------------------------------------------------------------------------------------------

Stave 4:

E|-----------------------------------------------------------------------------------------------------
B|------------------------------------------------------------------------------9----------------------
G|--9-------------9------11b13r11--9--------9--------------------------------9---------9--11p9------7--
D|-----11--9--11-----11---------------9h11-----9h11--9--------------------9--------11-----------11-----
A|------------------------------------------------------10h11---------11-------------------------------
E|-------------------------------------------------------------12--------------------------------------

Stave 5:

E|-----------------------------------------------------------------------------------------------------
B|--------7--------7----------------5---------------------------------------------------------------5--
G|-----7--------7----------4--6--4-----4---------------------------------------------------------------
D|--7--------7--------4/6--------------------2--2--6\4--2-----2-----0--4\2--0--2p0-------2--2--4/6-----
A|----------------------------------------4----------------4------------------------3h4----------------
E|-----------------------------------------------------------------------------------------------------

Stave 6:

E|-------------------
B|-------------------
G|-------------------
D|--------2----------
A|--4--2-------------
E|-----------0--3b0--

http://www.guitartabcreator.com
Guitar Tab Creator is intended to store guitar tab created through the tool. It currently does not support in-line text editing. Any text you place in here will be lost. If you need to comment on your tab, please use the "Tab Notes" section located below.