Sound will begin in 5 seconds

st stephen barton intro

01234567891011121314151617181920212223
E
B
G
D
A
E
B
0 1 2 3 4 5 6 7 8 9 10 11 12 13 14 15 16 17 18 19 20 21 22 23
Song Science #1: How Pros Use 6 Chords to Write Hit Songs
(/) Slide Up  (\) Slide Down  (h) Hammer On  (p) Pull Off  (b) Bend (r) Release (v) Vibrato

Stave 1:

E|----------------------------9----------9/11---------------------------9----------11--11--
B|----------9--10--12--10--9-----12--10--------12-----9--10--12--10--9-----12--10----------
G|--11--11---------------------------------------------------------------------------------
D|-----------------------------------------------------------------------------------------
A|-----------------------------------------------------------------------------------------
E|-----------------------------------------------------------------------------------------

Stave 2:

E|--9--10--12--10--9--10--9------12--12-----10--9--10--9-----------------------------------
B|---------------------------12---------------------------12-----12--10--9------10--9------
G|--------------------------------------------------------------------------11---------11--
D|-----------------------------------------------------------------------------------------
A|-----------------------------------------------------------------------------------------
E|-----------------------------------------------------------------------------------------

Stave 3:

E|--------------------------------------------------------------------------7--------------
B|---------------------------------5-----5--7b9r7--5-----5-------5-----7b9-----9r7--5h7p5--
G|--7h9-----11r9--7-----7-----4/6-----6---------------6-----4h6----------------------------
D|-------9-----------9---------------------------------------------------------------------
A|-----------------------------------------------------------------------------------------
E|-----------------------------------------------------------------------------------------

Stave 4:

E|----------------------------------------------5-------------------------------------7-------9--7-----
B|-----5------------------5------------------7-----------5----------5--9p7p5-----7/9-----8h9--------9--
G|--6-----6p4-----4-----------------------------------6--------4/6------------6------------------------
D|-------------7-----5h6-----6\4--6\4--2-----------7--------7------------------------------------------
A|-----------------------------------------------------------------------------------------------------
E|-----------------------------------------------------------------------------------------------------

Stave 5:

E|-------4---------------------------------------------------------------------------------------------
B|--7b9-----9r7--5-----5--------5-----7p5-----5-------------------5----------5----------------------7--
G|------------------6--------6-------------6-----6\4--4-----4--6----------------6--4-----6/7-----7-----
D|------------------------7------------------------------6-----------5h6----------------------7--------
A|------------------------------------------------------------------------7----------------------------
E|-----------------------------------------------------------------------------------------------------

Stave 6:

E|---------------------------------------7----------------------------------------------------------------
B|--------5-------------------5-----7/9-----9\7--5--5-------5--------------5------------------------------
G|-----6----------4-----4--6---------------------------4h6-----4--------6----------4--4-------------------
D|--7--------5h6-----6--------------------------------------------7--7--------4/6--------6\4-----2--------
A|--------------------------------------------------------------------------------------------4-----4--4--
E|--------------------------------------------------------------------------------------------------------

Stave 7:

E|--
B|--
G|--
D|--
A|--
E|--

http://www.guitartabcreator.com
Guitar Tab Creator is intended to store guitar tab created through the tool. It currently does not support in-line text editing. Any text you place in here will be lost. If you need to comment on your tab, please use the "Tab Notes" section located below.