Sound will begin in 5 seconds

st. stephen 1 22 78 solo3

01234567891011121314151617181920212223
E
B
G
D
A
E
B
0 1 2 3 4 5 6 7 8 9 10 11 12 13 14 15 16 17 18 19 20 21 22 23
Song Science #1: How Pros Use 6 Chords to Write Hit Songs
(/) Slide Up  (\) Slide Down  (h) Hammer On  (p) Pull Off  (b) Bend (r) Release (v) Vibrato

Stave 1:

E|----------------------------------------------------------------------------------------------------
B|--------------12--------------12----------------------12---------------------12---------------------
G|------13--14------14--13--14------14--13------13--14------14p13------13--14------14p13--------------
D|--14--------------------------------------14---------------------14---------------------14----------
A|--------------------------------------------------------------------------------------------14--14--
E|----------------------------------------------------------------------------------------------------

Stave 2:

E|--------------12--14--12--14--15p14p12h14--12----------12---------------------17------17--
B|--12--14--15-----------------------------------14--15------15--12--14---------------------
G|-----------------------------------------------------------------------14/16------16------
D|------------------------------------------------------------------------------------------
A|------------------------------------------------------------------------------------------
E|------------------------------------------------------------------------------------------

Stave 3:

E|--16--16----------14----------14-------------------------------------------------------------------
B|----------15--17------15--17------15------14--15---------------------------------------------------
G|--------------------------------------16-------------14------13----------13------------------------
D|---------------------------------------------------------14------14----------14------12h14p12------
A|---------------------------------------------------------------------14----------14------------14--
E|---------------------------------------------------------------------------------------------------

Stave 4:

E|--------------------------------------------------------------------------------------------------
B|--------------------------------------------------------------------------------------------------
G|--------------------------------------------------------------------------------------------------
D|--11h12p11--------------12--12--14--11--12--13--14--11--12------11--------------------------------
A|------------14--12--14--------------------------------------14------12--14--11--14p12p11--12------
E|----------------------------------------------------------------------------------------------12--

http://www.guitartabcreator.com
Guitar Tab Creator is intended to store guitar tab created through the tool. It currently does not support in-line text editing. Any text you place in here will be lost. If you need to comment on your tab, please use the "Tab Notes" section located below.