Sound will begin in 5 seconds

st louis blues - bill frisell

01234567891011121314151617181920212223
E
B
G
D
A
E
B
0 1 2 3 4 5 6 7 8 9 10 11 12 13 14 15 16 17 18 19 20 21 22 23
Song Science #1: How Pros Use 6 Chords to Write Hit Songs
(/) Slide Up  (\) Slide Down  (h) Hammer On  (p) Pull Off  (b) Bend (r) Release (v) Vibrato

Stave 1:

E|-----------------5-------------------------------------------------------------
B|--------------------7----------------------0--------------5-----------6-----5--
G|-------------------------------------5--4-----------4--7-----------5-----------
D|--7---------6/7--------6\5--4-----4-----------------------------4--------5-----
A|-----12------------------------------------------------------------------------
E|----------------------------------------------3--------------5-----------------

Stave 2:

E|----------------------------------------------------------------------------------------
B|--3-------------------------------------------------3-----------------------------------
G|-----4h5-----4/5--2---------------------------2--5-----5-----------5--------3--------4--
D|---------------------2-------------------3/4--------------------4--------2--------3-----
A|------------------------5----------5----------------------------------------------------
E|---------------------------1/2--5----------------------------4--------2--------3--------

Stave 3:

E|-------------------------------------------------------------------------10----------------10------
B|--3--5--6-----3--------------3--5--------------6--------5--3---------------------------------------
G|-----------4--------------3-----------------6--------6--------4h5--7/11--------------9/11----------
D|-----------------------5-----------------5--------5------------------------------------------------
A|---------------------------------------------------------------------------------12----------------
E|--------------------3-----------------5--------------------------------------10----------------10--

Stave 4:

E|----------------------------------------
B|-----5--5--5\4--------------------6--6--
G|-------------------------------7--------
D|----------------7-----------6-----------
A|--0----------------------7--------------
E|----------------------0-----------------

http://www.guitartabcreator.com
Guitar Tab Creator is intended to store guitar tab created through the tool. It currently does not support in-line text editing. Any text you place in here will be lost. If you need to comment on your tab, please use the "Tab Notes" section located below.