Sound will begin in 5 seconds

SPAC Moma

01234567891011121314151617181920212223
E
B
G
D
A
E
B
0 1 2 3 4 5 6 7 8 9 10 11 12 13 14 15 16 17 18 19 20 21 22 23
Song Science #1: How Pros Use 6 Chords to Write Hit Songs
(/) Slide Up  (\) Slide Down  (h) Hammer On  (p) Pull Off  (b) Bend (r) Release (v) Vibrato

Stave 1:

E|--------------------11b12--15r13--11---------------------11b13-----------------------------------------
B|---------13--11/13--------------------13---------13-------------13--11----------------8----------------
G|--10/12--------------------------------------12------12-----------------12\10--8--10-----8/9-----------
D|----------------------------------------------------------------------------------------------10p8h10--
A|-------------------------------------------------------------------------------------------------------
E|-------------------------------------------------------------------------------------------------------

Stave 2:

E|-------------------------------8-----------------------------------------------------------------------
B|-----------------8--10--10/11--------11-------------------11-------------------------------------------
G|--10/12--12--10-------------------9------12\10--8------8------10b12--12--12--12--12--12--12r10--8------
D|---------------------------------------------------10----------------------------------------------10--
A|-------------------------------------------------------------------------------------------------------
E|-------------------------------------------------------------------------------------------------------

Stave 3:

E|-------------------------------------------------------------------------------------------------------
B|-------------------------------------------------------------------------------------------------------
G|--10--7/8--10--------------8b9----------------10b12--10--10b12--8b9------------------------------------
D|--------------------------------10--10-------------------------------10------8--------------5----------
A|---------------10--10--10------------------------------------------------10-----10\8--6--8-----6b5-----
E|----------------------------------------------------------------------------------------------------8--

Stave 4:

E|----------------8---------8--11/12--13b15--15--15--15--15r13--11------13--10/11------------------
B|---------11b13-----8--11------------------------------------------13-------------13------11--13--
G|-------------------------------------------------------------------------------------12----------
D|--10---------------------------------------------------------------------------------------------
A|-------------------------------------------------------------------------------------------------
E|-------------------------------------------------------------------------------------------------

Stave 5:

E|---------11b12------
B|----------------13--
G|--9--12-------------
D|--------------------
A|--------------------
E|--------------------

http://www.guitartabcreator.com
Guitar Tab Creator is intended to store guitar tab created through the tool. It currently does not support in-line text editing. Any text you place in here will be lost. If you need to comment on your tab, please use the "Tab Notes" section located below.