Sound will begin in 5 seconds

slave mansfield

01234567891011121314151617181920212223
E
B
G
D
A
E
B
0 1 2 3 4 5 6 7 8 9 10 11 12 13 14 15 16 17 18 19 20 21 22 23
Song Science #1: How Pros Use 6 Chords to Write Hit Songs
(/) Slide Up  (\) Slide Down  (h) Hammer On  (p) Pull Off  (b) Bend (r) Release (v) Vibrato

Stave 1:

E|---------------------------------------------------------------------------
B|-------5-------------------------------------------------------------------
G|--1/2-----2--6/7--6--4\2--2--------2---------------------------------------
D|-----------------------------5--------5--4--2-----2--4p2--4--4-----3/4--2--
A|-----------------------------------------------5---------------------------
E|---------------------------------------------------------------------------

Stave 2:

E|----------------------------------------------------------------------------------12p9---------
B|-------5-----5-------5--5----------8--8--------7----------------------------------------10-----
G|----------------6/7-------------9-----------------7-------------7--9--7-----9---------------9--
D|--6/7-----7----------------8/9--------------9--------7-----7h9-----------7---------------------
A|--------------------------------------------------------9--------------------------------------
E|-----------------------------------------------------------------------------------------------

Stave 3:

E|---------------------------9-------------------------------------------------------------------------
B|----------------10-----12-----10---------------------------------8-----------10p8p7-----7--10--------
G|--9----------9------9--------------------9--------------------7----------------------8---------9/11--
D|-----12--11-----------------------10/11---------11--9------9--------9/11-----------------------------
A|--------------------------------------------12---------10--------------------------------------------
E|-----------------------------------------------------------------------------------------------------

Stave 4:

E|------------------------------------------------------------
B|--10--------------------------------------------------------
G|------9-----------------------------------------------------
D|---------12--9------12-------------------------------9------
A|----------------12------12--9------9--12--11-----12-----12--
E|-------------------------------10---------------------------

http://www.guitartabcreator.com
Guitar Tab Creator is intended to store guitar tab created through the tool. It currently does not support in-line text editing. Any text you place in here will be lost. If you need to comment on your tab, please use the "Tab Notes" section located below.