Sound will begin in 5 seconds

simple twist of fate 2/19/78 solo 2

01234567891011121314151617181920212223
E
B
G
D
A
E
B
0 1 2 3 4 5 6 7 8 9 10 11 12 13 14 15 16 17 18 19 20 21 22 23
Song Science #1: How Pros Use 6 Chords to Write Hit Songs
(/) Slide Up  (\) Slide Down  (h) Hammer On  (p) Pull Off  (b) Bend (r) Release (v) Vibrato

Stave 1:

E|--------------------------------------------------------------------------
B|----------12--10--10------------------------------------------------------
G|------12--------------11--------------------------------------------------
D|--12----------------------12--11--12--11--9--11--9--7--9--9--9------------
A|----------------------------------------------------------------9p8p7-----
E|-----------------------------------------------------------------------9--

Stave 2:

E|-------------------------------------------------------9----------9--10--9--
B|-------------------------------------9--10--9--10--12-----10--12------------
G|--------------------------9--10--11-----------------------------------------
D|---------------9--10--11----------------------------------------------------
A|--6/9--11--12---------------------------------------------------------------
E|----------------------------------------------------------------------------

Stave 3:

E|--13/14--12------------------------------------------------------------------------------------
B|-------------13------13-----------------10-----------------------------------------10----------
G|-----------------14------14--12--10/11------11----------------------11---------11------11--12--
D|------------------------------------------------12--11--10------10------12---------------------
A|------------------------------------------------------------12---------------------------------
E|-----------------------------------------------------------------------------------------------

Stave 4:

E|-----------------10----------------14r12--10--------------------------------------------------
B|------13--11/12------11b13--------------------11------10h11-----------------------------------
G|--12------------------------12--------------------12---------12--11--10-----------------------
D|-------------------------------------------------------------------------12--11--10--8/9------
A|------------------------------------------------------------------------------------------10--
E|----------------------------------------------------------------------------------------------

Stave 5:

E|--------------------------------------------------9--10--12--12--13--13b15--13b15--13b15--
B|------------------------------10--------------10------------------------------------------
G|--------------------------11------11------11----------------------------------------------
D|--------------10--11--12--------------11--------------------------------------------------
A|--10--10--12------------------------------------------------------------------------------
E|------------------------------------------------------------------------------------------

Stave 6:

E|--10-----------------------------------------------------------------------------14--
B|------10--------------10--8--7--7--------------7--------8--8--7----------------------
G|----------13--12--12---------------7--7-----7-----9--9-----------11--12--13--14------
D|-------------------------------------------------------------------------------------
A|-------------------------------------------------------------------------------------
E|-------------------------------------------------------------------------------------

Stave 7:

E|--14--14--15--17--17--17b19--17--17--17b19--17--17--17b19--17--17--19--17b19r17--17--17--17b19--
B|------------------------------------------------------------------------------------------------
G|------------------------------------------------------------------------------------------------
D|------------------------------------------------------------------------------------------------
A|------------------------------------------------------------------------------------------------
E|------------------------------------------------------------------------------------------------

Stave 8:

E|------------17--19b21r19--17--19------17--21b23--21--20------20--21b23--20--18h19--------------15--
B|--17h18h19------------------------19---------------------19------------------------20--------------
G|---------------------------------------------------------------------------------------19--16------
D|---------------------------------------------------------------------------------------------------
A|---------------------------------------------------------------------------------------------------
E|---------------------------------------------------------------------------------------------------

Stave 9:

E|----------------------------------------------------------15--17b19r17--15--17--15--14--15--14----------
B|--17--15------15--15h17p15------15--17--15--15h17-----15----------------------------------------17--15--
G|----------16----------------16--------------------------------------------------------------------------
D|--------------------------------------------------------------------------------------------------------
A|--------------------------------------------------------------------------------------------------------
E|--------------------------------------------------------------------------------------------------------

Stave 10:

E|----------19--21--21b23--21--21b23--17b19r17--17--17--17p16--17--17--17p16--17--17--17p16h17--
B|----------------------------------------------------------------------------------------------
G|----------------------------------------------------------------------------------------------
D|----------------------------------------------------------------------------------------------
A|--17--17--------------------------------------------------------------------------------------
E|----------------------------------------------------------------------------------------------

Stave 11:

E|--16--15--14-------------14-------------15--14------------------------------
B|--------------15-----15------17-----17--------------------------------------
G|------------------------------------------------14--------------------------
D|----------------------------------------------------------------------------
A|-------------------------------------------------------0--2--0--2--4--4--5--
E|----------------------------------------------------------------------------

http://www.guitartabcreator.com
Guitar Tab Creator is intended to store guitar tab created through the tool. It currently does not support in-line text editing. Any text you place in here will be lost. If you need to comment on your tab, please use the "Tab Notes" section located below.