Sound will begin in 5 seconds

simple twist of fate 2/19/78

01234567891011121314151617181920212223
E
B
G
D
A
E
B
0 1 2 3 4 5 6 7 8 9 10 11 12 13 14 15 16 17 18 19 20 21 22 23
Song Science #1: How Pros Use 6 Chords to Write Hit Songs
(/) Slide Up  (\) Slide Down  (h) Hammer On  (p) Pull Off  (b) Bend (r) Release (v) Vibrato

Stave 1:

E|-----------------------------------------------------------------------------------------------------
B|------------------15--15-----15p14--15p14------14-------------------------14--15--17--15p14------15--
G|------14--15--16---------------------------16------16------14-----14--16---------------------16------
D|--17---------------------------------------------------16--------------------------------------------
A|-----------------------------------------------------------------------------------------------------
E|-----------------------------------------------------------------------------------------------------

Stave 2:

E|----------------------------------------15--17----------------17/19--17--------------------------------
B|--14-----------------------------17b19----------17b19r17--15-------------19--17--15--17--17b19r17--15--
G|------16--14------14--16-------------------------------------------------------------------------------
D|--------------16----------16---------------------------------------------------------------------------
A|-------------------------------------------------------------------------------------------------------
E|-------------------------------------------------------------------------------------------------------

Stave 3:

E|------------------------------------------------------------------------------------
B|------15--17------17b19--17--15--17--15-----15-----19r17--15------17b19r17--15--15--
G|--16----------16----------------------------------------------16--------------------
D|------------------------------------------------------------------------------------
A|------------------------------------------------------------------------------------
E|------------------------------------------------------------------------------------

Stave 4:

E|---------17--17--19b21---------------------------------------------------17--17------17------17--19--
B|--17/19-----------------19\17--15--15-----------------15--17--17/19--19----------19------19----------
G|---------------------------------------16--16-----16-------------------------------------------------
D|-----------------------------------------------------------------------------------------------------
A|-----------------------------------------------------------------------------------------------------
E|-----------------------------------------------------------------------------------------------------

Stave 5:

E|----------------------------15--17---------------------------------------------
B|--19r17--15------15--17b19----------19r17--15------15--15------15--17------15--
G|-------------16--------------------------------16----------16----------16------
D|-------------------------------------------------------------------------------
A|-------------------------------------------------------------------------------
E|-------------------------------------------------------------------------------

Stave 6:

E|-------------17--17--19--19--21--22--22--21--21--21p19--19\17------17------17--17--------------
B|--17/19--19----------------------------------------------------19------19----------19--17--19--
G|-----------------------------------------------------------------------------------------------
D|-----------------------------------------------------------------------------------------------
A|-----------------------------------------------------------------------------------------------
E|-----------------------------------------------------------------------------------------------

Stave 7:

E|---------------------------------------------------------------------------------------------
B|--------------19------17--14------------------14---------------------------------------------
G|--18------18------18----------14----------14------14-----------------------------------------
D|------19--------------------------16--16--------------16--14---------------------------------
A|--------------------------------------------------------------16--14--14\12----------12------
E|-----------------------------------------------------------------------------14--14------10--

Stave 8:

E|-------------------------------10--10------14--12\10--10------------------12--10--
B|-----------------------10--11----------13---------------------12--13--13----------
G|----------------10/11-------------------------------------12----------------------
D|--9/12--12--12--------------------------------------------------------------------
A|----------------------------------------------------------------------------------
E|----------------------------------------------------------------------------------

Stave 9:

E|--17b19--19--19--19r17------15--13-------------------------------------------------------------
B|------------------------18----------15-------------------------------------15--14--14--17--15--
G|----------------------------------------15-----15--17--16--15--14------14----------------------
D|-------------------------------------------------------------------16--------------------------
A|-----------------------------------------------------------------------------------------------
E|-----------------------------------------------------------------------------------------------

Stave 10:

E|----------14-------------15--14--14--15--16--17---------------------------------------15--17--
B|------15------17-----17--------------------------17b19--15------17b19--17--15--17b19----------
G|--16--------------------------------------------------------16--------------------------------
D|----------------------------------------------------------------------------------------------
A|----------------------------------------------------------------------------------------------
E|----------------------------------------------------------------------------------------------

Stave 11:

E|-----------------------------------
B|--17b19--17--15--------------------
G|-----------------------------------
D|-----------------------------------
A|--------------------0--0--2--4--5--
E|-----------------------------------

http://www.guitartabcreator.com
Guitar Tab Creator is intended to store guitar tab created through the tool. It currently does not support in-line text editing. Any text you place in here will be lost. If you need to comment on your tab, please use the "Tab Notes" section located below.