Sound will begin in 5 seconds

shakedown philly spectrum verse solo

01234567891011121314151617181920212223
E
B
G
D
A
E
B
0 1 2 3 4 5 6 7 8 9 10 11 12 13 14 15 16 17 18 19 20 21 22 23
Song Science #1: How Pros Use 6 Chords to Write Hit Songs
(/) Slide Up  (\) Slide Down  (h) Hammer On  (p) Pull Off  (b) Bend (r) Release (v) Vibrato

Stave 1:

E|----------------------------------------------------------------------------------
B|-------------------------12----------12----------12/13--13b15r13--10------10------
G|-----------------------------12----------10---------------------------12------12--
D|--------------10--11/12----------12----------12-----------------------------------
A|--10--11--12----------------------------------------------------------------------
E|----------------------------------------------------------------------------------

Stave 2:

E|----------------------------------------------------------------------------------------
B|----------------------------------------------------------------------------------------
G|---------15--12------12-----------------------------------------------------------------
D|--13/14----------14------14--10h12--------------10------12--10------10--10--10--10--12--
A|------------------------------------10--11--12------12----------12----------------------
E|----------------------------------------------------------------------------------------

Stave 3:

E|----------------------------------------------
B|----------------------------------------------
G|------------------------------------------10--
D|--12--11--10--9------10--9------9--11/12------
A|-----------------10---------10----------------
E|----------------------------------------------

http://www.guitartabcreator.com
Guitar Tab Creator is intended to store guitar tab created through the tool. It currently does not support in-line text editing. Any text you place in here will be lost. If you need to comment on your tab, please use the "Tab Notes" section located below.