Sound will begin in 5 seconds

shakedown philly spectrum 4/6/82 starts at 7:39

01234567891011121314151617181920212223
E
B
G
D
A
E
B
0 1 2 3 4 5 6 7 8 9 10 11 12 13 14 15 16 17 18 19 20 21 22 23
Song Science #1: How Pros Use 6 Chords to Write Hit Songs
(/) Slide Up  (\) Slide Down  (h) Hammer On  (p) Pull Off  (b) Bend (r) Release (v) Vibrato

Stave 1:

E|-----------------------------------------------------------------------------------------------------
B|-----------------------------------------------------------------------------------------------------
G|-------------------8b9---------------------------------------------------------------------8---------
D|------------8--10-------10--8--10--8-------------------------------------8--10------8--10-----10--8--
A|--8--9--10----------------------------10--8--6-----------------------10---------10-------------------
E|------------------------------------------------8--6--8--8--6--8-------------------------------------

Stave 2:

E|------------------------------------------------------------------------------------------------------
B|------------------------------------------------------------------------------------------------------
G|--10--8b9---------------------------10--12--11--10--8h10p8------8-------------8-----------------------
D|-----------10--8------8--10--10-----------------------------10-----10--8--10-----10p8------8--10--10--
A|------------------10-------------------------------------------------------------------10-------------
E|------------------------------------------------------------------------------------------------------

Stave 3:

E|-------------------------------------------------------------------------------------------------------
B|--8--10--8------8--------------------------------------------------------------------------------------
G|------------10-----8-----------------------------------------------------------------------------------
D|----------------------10--8--10--8---------8--10--8-------------------------------------------------1--
A|------------------------------------10---------------9\8--6-----6--6--------------1--3--3--3--1--3-----
E|-------------------------------------------------------------8--------8--6--3--------------------------

Stave 4:

E|--6--3-----3---------------------------------------------------------------------------
B|--------4-----4b6----------------------------------------------------------------------
G|-------------------5--3--5-----11--10--8------8h9--------------------------------------
D|------------------------------------------10-------10--9--8------8--10p8---------------
A|-------------------------------------------------------------10-----------10--8--7-----
E|------------------------------------------------------------------------------------8--

Stave 5:

E|-------------------------------------------11b13--8-------------------------------------
B|-----------------------------------------------------11--11--11--11--11--11--11--11h13--
G|----------------------------------------------------------------------------------------
D|------------10------8-------------------------------------------------------------------
A|--8--9--10------10-----9--8--6h7--------------------------------------------------------
E|----------------------------------8--6--------------------------------------------------

Stave 6:

E|--13b15--11--13p11--13--11---------------------18--15--17--16--15------------------------------------
B|----------------------------13--13--13--13-------------------------16--18--15--16/17-----------------
G|--------------------------------------------------------------------------------------17p15------15--
D|---------------------------------------------------------------------------------------------17------
A|-----------------------------------------------------------------------------------------------------
E|-----------------------------------------------------------------------------------------------------

Stave 7:

E|---------------------------------------------------------------------------------------
B|--------------17----------------------13--11h12h13--11-----11--------------------------
G|---------------------------------------------------------------12--10--8b9-------------
D|--15--16--17------17--14--12--13--14----------------------------------------10--8--10--
A|---------------------------------------------------------------------------------------
E|---------------------------------------------------------------------------------------

Stave 8:

E|------------------------------------------------------------------------------------------------
B|-------------------------11---------------------------------11--------------13p11---------------
G|--10/12--12--12--12--12------12-----12--12--12--12--12--12------12--12--12---------12--10--8b9--
D|------------------------------------------------------------------------------------------------
A|------------------------------------------------------------------------------------------------
E|------------------------------------------------------------------------------------------------

Stave 9:

E|-------------
B|-------------
G|-------------
D|--10--8--10--
A|-------------
E|-------------

http://www.guitartabcreator.com
Guitar Tab Creator is intended to store guitar tab created through the tool. It currently does not support in-line text editing. Any text you place in here will be lost. If you need to comment on your tab, please use the "Tab Notes" section located below.