Sound will begin in 5 seconds

shakedown philly spectrum 4/6/82 part 4

01234567891011121314151617181920212223
E
B
G
D
A
E
B
0 1 2 3 4 5 6 7 8 9 10 11 12 13 14 15 16 17 18 19 20 21 22 23
Song Science #1: How Pros Use 6 Chords to Write Hit Songs
(/) Slide Up  (\) Slide Down  (h) Hammer On  (p) Pull Off  (b) Bend (r) Release (v) Vibrato

Stave 1:

E|-------------------------------------------------------------------------------
B|-------------------------------------------------------------------------------
G|-------------------------------------------------------------------------------
D|--10--9--8-----------8------8--10--8------------10-----10--8------8------8h10--
A|------------10p9h10-----10------------10--9--8----------------10-----10--------
E|-------------------------------------------------------------------------------

Stave 2:

E|-----------------------------------------------------------------------------------------------
B|--8--------------------------------------------------------------------------------------------
G|-----11--10--8------9--10--8h9------8----------------------------------------------------------
D|----------------10--------------10-----10--8------8--9--10-----10--8------8------8--10--8--10--
A|----------------------------------------------10----------------------10-----10----------------
E|-----------------------------------------------------------------------------------------------

Stave 3:

E|---------------------------------------------------------------------------------------
B|------------------------------------------------------------------------11---------13--
G|------------------------------------------8-------------8h9------10/12------11h12------
D|--8--10p8------8-----------10------8--10-----10--8--10-------10------------------------
A|-----------10-----10p9h10------10------------------------------------------------------
E|---------------------------------------------------------------------------------------

Stave 4:

E|---------------------10--------------
B|------11--13p11--13------13--12--11--
G|--12---------------------------------
D|-------------------------------------
A|-------------------------------------
E|-------------------------------------

http://www.guitartabcreator.com
Guitar Tab Creator is intended to store guitar tab created through the tool. It currently does not support in-line text editing. Any text you place in here will be lost. If you need to comment on your tab, please use the "Tab Notes" section located below.