Sound will begin in 5 seconds

shakedown philly spectrum 4/6/82 part 3

01234567891011121314151617181920212223
E
B
G
D
A
E
B
0 1 2 3 4 5 6 7 8 9 10 11 12 13 14 15 16 17 18 19 20 21 22 23
Song Science #1: How Pros Use 6 Chords to Write Hit Songs
(/) Slide Up  (\) Slide Down  (h) Hammer On  (p) Pull Off  (b) Bend (r) Release (v) Vibrato

Stave 1:

E|-----11--10--8------8--8--------------------------------------------------------------------------
B|--8-------------11--------8------8----------------------------------------------------------------
G|-----------------------------10-----8h9-----------------------------------------------------------
D|-----------------------------------------10--8------8--10p8------8--------------------------------
A|------------------------------------------------10-----------10-----9--10--9--8-----6h7-----6-----
E|---------------------------------------------------------------------------------8-------8-----8--

Stave 2:

E|--13/15--13--11--11----------------------------------------------------------------------------
B|---------------------13-----11--13--11------11-------------------------------------------------
G|----------------------------------------12------12--11\10--8--10--11\10--8------8--8-----------
D|----------------------------------------------------------------------------10--------10p8h10--
A|-----------------------------------------------------------------------------------------------
E|-----------------------------------------------------------------------------------------------

Stave 3:

E|-------------------------11--11---------------------------11b12--11b12------
B|--11--11/13--13--11--------------13-----11h13--13p11--------------------13--
G|---------------------12-------------------------------12--------------------
D|----------------------------------------------------------------------------
A|----------------------------------------------------------------------------
E|----------------------------------------------------------------------------

Stave 4:

E|------------------------------11--11---------------------------11--11---------------------------
B|--11--13--13--13--13--11--------------13-----11h13--13p11--------------13-----11h13--13p11------
G|--------------------------12-------------------------------12-------------------------------12--
D|------------------------------------------------------------------------------------------------
A|------------------------------------------------------------------------------------------------
E|------------------------------------------------------------------------------------------------

Stave 5:

E|--11--11-----------------------------------------------------------11--11---------------------------
B|----------13-----11h13--13p11--------------------11h13--13p11--------------13-----11h13--13p11------
G|-------------------------------12--10--8-----------------------12-------------------------------12--
D|------------------------------------------10--------------------------------------------------------
A|----------------------------------------------------------------------------------------------------
E|----------------------------------------------------------------------------------------------------

Stave 6:

E|--------------------------------------------11--11---------------------------13b15r13p11------
B|--------------------------11h13--13p11--------------13-----11h13--13p11-------------------13--
G|--10--8---------8-----------------------12-------------------------------12-------------------
D|---------10--8-----10-------------------------------------------------------------------------
A|----------------------------------------------------------------------------------------------
E|----------------------------------------------------------------------------------------------

Stave 7:

E|--11--------------11--11----------------------------------------11----------------------
B|------13--11--------------13--11--13--11------11--------------------11--13--13--11------
G|--------------12--------------------------12------12--8--8--------------------------12--
D|------------------------------------------------------------10--------------------------
A|----------------------------------------------------------------------------------------
E|----------------------------------------------------------------------------------------

Stave 8:

E|--13b15r13p11---------------------------------------------------------------------13b15--13--
B|---------------13-----13--11------11--13p11----------------11--13--13p11------11-------------
G|------------------------------12-------------10--8------------------------12-----------------
D|----------------------------------------------------10---------------------------------------
A|---------------------------------------------------------------------------------------------
E|---------------------------------------------------------------------------------------------

Stave 9:

E|------------------------------------------------------------------------------------------
B|--13--11------11--11--11------------------------------------------------------------------
G|----------12--------------12--10--10--10------8-------------------------------------------
D|------------------------------------------10-----10p8h10--8--10--8------8------10--8------
A|--------------------------------------------------------------------10-----10---------10--
E|------------------------------------------------------------------------------------------

Stave 10:

E|-----------------------------------------------------------------------------------------
B|-----------------------------------------------------------------------------------------
G|-----------------------------------------------------------------------------------------
D|--10--8--10--8------10------10-----10--8--10--8------10--8--10--8------10--8--10--8------
A|----------------10------10-----------------------10----------------10----------------10--
E|-----------------------------------------------------------------------------------------

Stave 11:

E|--------------------------------------------------------------------------------------------
B|--------------------------------------------------------------------------------------------
G|--10--8h9---------------------------------------------------------------10--8h9-------------
D|-----------10-----10--8--10--8------10--8--10--8------10--8--10--8---------------10--8------
A|--------------------------------10----------------10----------------10------------------10--
E|--------------------------------------------------------------------------------------------

Stave 12:

E|-------------------------------------------------------------------------------------------------------
B|-----------------------------------------------------------------------------------11------11--11--11--
G|--------------------------------------------------------10--8h9-------------10/12------12--------------
D|--10--8--10--8------10--8--10--8------10--8--10--8---------------10--8---------------------------------
A|----------------10----------------10----------------10------------------10-----------------------------
E|-------------------------------------------------------------------------------------------------------

Stave 13:

E|---------------------------------------------------------------------------------------------------
B|------11--13-----11--13--13--13--13--11-----------------------------11------11--11--11------11h13--
G|--12-------------------------------------12\10------8h9------10/12------12--------------12---------
D|------------------------------------------------10-------10----------------------------------------
A|---------------------------------------------------------------------------------------------------
E|---------------------------------------------------------------------------------------------------

Stave 14:

E|--12--11--10------10--------------------------------------------------------------------
B|--------------13------13--12--11--------------------------------------------------------
G|----------------------------------12--11--10--8h9---------------------------------------
D|---------------------------------------------------10-----8h10--10--8------8------8h10--
A|-----------------------------------------------------------------------10-----10--------
E|----------------------------------------------------------------------------------------

Stave 15:

E|----------------------------------------------------------------------------------------------
B|----------------------------------------------------------------------------------------------
G|----------------------------------------------------------------------------------------------
D|--8h10--10--8---------10p8--------8------------------10--8h10--10--10--10p8------8------8h10--
A|---------------10-----------9h10-----10--9--8--7-----------------------------10-----10--------
E|--------------------------------------------------8-------------------------------------------

Stave 16:

E|--
B|--
G|--
D|--
A|--
E|--

http://www.guitartabcreator.com
Guitar Tab Creator is intended to store guitar tab created through the tool. It currently does not support in-line text editing. Any text you place in here will be lost. If you need to comment on your tab, please use the "Tab Notes" section located below.