Sound will begin in 5 seconds

shakedown philly spectrum 4/6/82 part 2

01234567891011121314151617181920212223
E
B
G
D
A
E
B
0 1 2 3 4 5 6 7 8 9 10 11 12 13 14 15 16 17 18 19 20 21 22 23
Song Science #1: How Pros Use 6 Chords to Write Hit Songs
(/) Slide Up  (\) Slide Down  (h) Hammer On  (p) Pull Off  (b) Bend (r) Release (v) Vibrato

Stave 1:

E|-----------------------------------------------------------------------------------------------
B|-----------------------------------------------------------------------------------------------
G|--9--8--7------------7-------------------------------------------------------------------------
D|-----------10--9h10-----10--9--8--10--9--8------8--10p8------8--------10-----------------------
A|--------------------------------------------10-----------10-----9h10------10\8--10--9--8--6h7--
E|-----------------------------------------------------------------------------------------------

Stave 2:

E|--------------------12--12--12--12--12--11b13--11--10-----------------------------------------
B|-------------------------------------------------------13--11--11--13v-----11-------------11--
G|-------------------------------------------------------------------------------12--11h12------
D|----------------------------------------------------------------------------------------------
A|----------------------------------------------------------------------------------------------
E|--8--6--8--8----------------------------------------------------------------------------------

Stave 3:

E|------------------------------10--11--12--------------12---------------------------------------
B|------------------------------------------11--12--13------13------11h13p11------11---------13--
G|--12--11--10------8h9-----------------------------------------12------------12------11h12------
D|--------------10-------10----------------------------------------------------------------------
A|-----------------------------------------------------------------------------------------------
E|-----------------------------------------------------------------------------------------------

Stave 4:

E|-----------------------------------------------------------11b12--12------11------11b12---------
B|----------------------------------------------------------------------13------13---------13p11--
G|--12--11--10------8--9--10--8h9-----------------------------------------------------------------
D|--------------10-----------------10-------------------------------------------------------------
A|-------------------------------------10--9--8--7------------------------------------------------
E|--------------------------------------------------8---------------------------------------------

Stave 5:

E|--------------18--17--15-------------------------------------------------
B|--13--13--13--------------16--15------16b17------------------------------
G|----------------------------------17---------17--15----------------------
D|-----------------------------------------------------17--16--15--13------
A|---------------------------------------------------------------------15--
E|-------------------------------------------------------------------------

Stave 6:

E|-------------------------------------------------------------------------------------------------------
B|--11--10--8--------------------------------------------------------------------------------------------
G|-------------10--9--7------7--9------9-----------------------------------------------------------------
D|-----------------------10--------10-----10--9--8-------------------------------------------------------
A|--------------------------------------------------10--9--8-----6--7--8--6h7-----6h7-----------------3--
E|------------------------------------------------------------8----------------8-------8--7--6--1--0-----

Stave 7:

E|-----11--10--8----------------------------------------------------------------------------------------
B|--8-------------11p8------10--8-----------------------------------------------------------------------
G|----------------------10---------8b9------------------------------------------------------------------
D|--------------------------------------10--8------------------10--8------10--10--10--10--10--10--10p8--
A|---------------------------------------------10--9--8--7------------10--------------------------------
E|----------------------------------------------------------8-------------------------------------------

http://www.guitartabcreator.com
Guitar Tab Creator is intended to store guitar tab created through the tool. It currently does not support in-line text editing. Any text you place in here will be lost. If you need to comment on your tab, please use the "Tab Notes" section located below.