Sound will begin in 5 seconds

Shakedown heaven

01234567891011121314151617181920212223
E
B
G
D
A
E
B
0 1 2 3 4 5 6 7 8 9 10 11 12 13 14 15 16 17 18 19 20 21 22 23
Song Science #1: How Pros Use 6 Chords to Write Hit Songs
(/) Slide Up  (\) Slide Down  (h) Hammer On  (p) Pull Off  (b) Bend (r) Release (v) Vibrato

Stave 1:

E|-----------------------------------------------------------------------------------------------
B|-----------------------------------------------------------------------------------------------
G|----------------------------------------------------------------------------------8b9----------
D|--8/10--10--8--------8--------10------------------------10--8------8--------8--8-------10--10--
A|---------------9h10-----9h10------10--9--8--6--6---------------10-----9h10---------------------
E|--------------------------------------------------8--6-----------------------------------------

Stave 2:

E|-----------------------------------------------------------------------------------------------------
B|-----------------------------------------------------------------------------------------------------
G|---------------------------------------------------------------------------10------8h9----------8/9--
D|--8/9--10------10------8--------10-------------------------------8--9--10------10-------10--10-------
A|-----------10------10-----9/10------10--9--8------------10p9h10--------------------------------------
E|----------------------------------------------12p11h12-----------------------------------------------

Stave 3:

E|--8-----------------------------------------------------------------------------------------
B|-----11--10--8------------------------------------------------------------------------------
G|----------------11--10------8--10--10b12r10--8------10--8--8/9\8----------------------------
D|------------------------10----------------------10----------------10---------10--13\12--10--
A|----------------------------------------------------------------------10/12-----------------
E|--------------------------------------------------------------------------------------------

Stave 4:

E|-----------------------------------------------------------------------------
B|-----------------------------------------------------------------------------
G|------------------------------------------10--8b9----------------------------
D|--7/10--10--10--10--10--8------8------10-----------10--8---------------------
A|---------------------------10-----10----------------------10--9--8--6--------
E|-----------------------------------------------------------------------8--6--

Stave 5:

E|--11--10--8------8-------------------------------------------------------------------
B|-------------11-----11--11p10p8------10--8----------------------8--------------------
G|---------------------------------10---------8b9------------8/9-----10b12r10--8h10p8--
D|-------------------------------------------------10--9h10----------------------------
A|-------------------------------------------------------------------------------------
E|-------------------------------------------------------------------------------------

Stave 6:

E|----------------------------------------------8--10--8------8----------8--10--11--10------8---------
B|--11--10--8-------------8----------8--10--11------------11-----10--11-----------------11-----11/13--
G|-------------10--8---------10--11-------------------------------------------------------------------
D|--------------------10------------------------------------------------------------------------------
A|----------------------------------------------------------------------------------------------------
E|----------------------------------------------------------------------------------------------------

Stave 7:

E|------12h13p12--11------11/12--------------------------11/12------13--13--12--13--13--12--13--
B|--13----------------13---------13--11------11--12--13---------13------------------------------
G|---------------------------------------12-----------------------------------------------------
D|----------------------------------------------------------------------------------------------
A|----------------------------------------------------------------------------------------------
E|----------------------------------------------------------------------------------------------

Stave 8:

E|--13b15r13--12------13--12------11h12-----------------------------------------------------------
B|----------------13----------13---------13--11------11--13--13v----------------------------------
G|-----------------------------------------------12---------------10--12p11p10--8h9--10--8h9------
D|--------------------------------------------------------------------------------------------10--
A|------------------------------------------------------------------------------------------------
E|------------------------------------------------------------------------------------------------

Stave 9:

E|----------------------------------------------------------------------------------------------
B|----------------------------------------------------------------------------------------------
G|----------------------------------------------------------------------10------8h9-------------
D|--------------------------------------10------------10------8--9--10------10-------10--8------
A|--10--10--10--9--8--7-----8--7--8--9------10--9h10------10--------------------------------10--
E|-----------------------8----------------------------------------------------------------------

Stave 10:

E|-----------------------------------------------------------------------------------------------
B|-----------------------------------------------------------------------------------------------
G|---------------------------------------------------------------------------------------10------
D|-------------------------------------------------8-----8--8--------8---------8--9--10------10--
A|--9h10--8--7-----7-----7--8--7--8--9--10--9--10-----9--------9h10-----8--10--------------------
E|--------------8--------------------------------------------------------------------------------

Stave 11:

E|--------------------------------------------------------------------------------------------------
B|--------------------------------------------------------------------------------------------------
G|-----------------------------------------------------------------10------8--10--8-----------------
D|----------------------------------------------8--------8--9--10------10------------10------8--10--
A|--10--9--8--6--8p6-----6--8--9--10--8--9--10-----9h10----------------------------------10---------
E|--------------------8-----------------------------------------------------------------------------

Stave 12:

E|-----------------------------------------------------------------------------12----------
B|---------------------------------------------------------------------------------11------
G|----------------------------------------------------10------8--10--8--10/12----------12--
D|---------------------------------8--------8--9--10------10-------------------------------
A|--7-----7--8--7--8--9--8--9--10-----9h10-------------------------------------------------
E|-----8-----------------------------------------------------------------------------------

Stave 13:

E|----------------------------------------------------------------------------------------------------
B|---------11------11--11------------------10/11---------8--11--11--11--11--11--10--11------11-----8--
G|--11/12------12----------12--12--12--11---------12--9---------------------------------10------9-----
D|----------------------------------------------------------------------------------------------------
A|----------------------------------------------------------------------------------------------------
E|----------------------------------------------------------------------------------------------------

Stave 14:

E|-------------------------------------12/13--12----------12--14p12-----14p12--14p12--
B|---------11--11------11------11-----------------13----------------------------------
G|--10/12----------12------12------12-----------------12------------------------------
D|------------------------------------------------------------------------------------
A|------------------------------------------------------------------------------------
E|------------------------------------------------------------------------------------

Stave 15:

E|--13p12------13------13p12------13p12--13/15------13p12------13------13p12--13/15--
B|---------13------13---------13----------------13---------13------13----------------
G|-----------------------------------------------------------------------------------
D|-----------------------------------------------------------------------------------
A|-----------------------------------------------------------------------------------
E|-----------------------------------------------------------------------------------

Stave 16:

E|--13p12------13--12--13--14--13--14--15--14--15--17--17--17b19r17--15-------------------------
B|---------13------------------------------------------------------------16b18--15--------------
G|----------------------------------------------------------------------------------17--15--17--
D|----------------------------------------------------------------------------------------------
A|----------------------------------------------------------------------------------------------
E|----------------------------------------------------------------------------------------------

Stave 17:

E|-------------------------------------------------------------
B|-------------------------------------------------------------
G|--15--17--17--17------15--17--18\17--15----------------------
D|------------------17---------------------17--17--15--14------
A|---------------------------------------------------------15--
E|-------------------------------------------------------------

http://www.guitartabcreator.com
Guitar Tab Creator is intended to store guitar tab created through the tool. It currently does not support in-line text editing. Any text you place in here will be lost. If you need to comment on your tab, please use the "Tab Notes" section located below.