Sound will begin in 5 seconds

shakedown

01234567891011121314151617181920212223
E
B
G
D
A
E
B
0 1 2 3 4 5 6 7 8 9 10 11 12 13 14 15 16 17 18 19 20 21 22 23
Song Science #1: How Pros Use 6 Chords to Write Hit Songs
(/) Slide Up  (\) Slide Down  (h) Hammer On  (p) Pull Off  (b) Bend (r) Release (v) Vibrato

Stave 1:

E|-------------------------------------------6-----6--------------------------------------
B|----------------------------------------------8-----8--5-----------------------------6--
G|------------2--4--5p4--5p4h5--6--7--7p6p5-----------------5--7--------------5--6--7-----
D|--5--5p4h5---------------------------------------------------------5--6--7--------------
A|----------------------------------------------------------------------------------------
E|----------------------------------------------------------------------------------------

Stave 2:

E|-------------------------------------------------------------------------------------------------
B|--8p6--6--6--10\8--10\8--6--------6-------6--------6--------11b13r11-----------------------------
G|----------------------------7--5-----5h7-----6--7-----7---------------12--10---------------------
D|------------------------------------------------------------------------------12--11--10--9------
A|---------------------------------------------------------------------------------------------10--
E|-------------------------------------------------------------------------------------------------

Stave 3:

E|-----------------------------------------------------------------------------------------------------
B|-------------------10/11--8--------------------------------------------------------------------------
G|-----------------------------9--------------------------------------------10------10--13\12--10------
D|--10--10\9/10-------------------10--10/12--10---------10------10--11--12------12-----------------12--
A|---------------10------------------------------11h12------12-----------------------------------------
E|-----------------------------------------------------------------------------------------------------

Stave 4:

E|---------------------------------------8--10p8----------12----------12--15--14--13--12--12--
B|---------------------------10------10-----------10--10----------13--------------------------
G|------------9/10--10p9h10------10---------------------------14------------------------------
D|--12p10h12----------------------------------------------------------------------------------
A|--------------------------------------------------------------------------------------------
E|--------------------------------------------------------------------------------------------

Stave 5:

E|--------------------------------------------------------------------------------8----------10--
B|--12--12----------------------------------12--11--12--11--10----------------10-----10--10------
G|----------12--12--------------12--12--14----------------------12--9--12--9---------------------
D|------------------12--13--14-------------------------------------------------------------------
A|-----------------------------------------------------------------------------------------------
E|-----------------------------------------------------------------------------------------------

Stave 6:

E|------10--12--12------------------15p14p13p12--12------12-----------------------
B|--10--------------13------13-----------------------13------13--15p14p13p12--12--
G|----------------------14------14------------------------------------------------
D|--------------------------------------------------------------------------------
A|--------------------------------------------------------------------------------
E|--------------------------------------------------------------------------------

Stave 7:

E|------------------------------------------------------------------------------
B|--12--13p12------12------12--10--9--8-----8-------8-------------------8-------
G|-------------14------14----------------9-----8h9-----9--8--7-----8h9-----9\7--
D|--------------------------------------------------------------9---------------
A|------------------------------------------------------------------------------
E|------------------------------------------------------------------------------

Stave 8:

E|--------------------------------5--5--7--8--8p7p5-----5------------------------
B|-----------------6--8-----6--8---------------------8-----8--6-----8--8--8--8v--
G|--------5--6--7--------7---------------------------------------7---------------
D|--6--7-------------------------------------------------------------------------
A|-------------------------------------------------------------------------------
E|-------------------------------------------------------------------------------

Stave 9:

E|---------------------------------------------
B|--8p7p6-----8-----------------------------8--
G|---------7-----7--6--5--4-----4--5--6--7-----
D|---------------------------5-----------------
A|---------------------------------------------
E|---------------------------------------------

Stave 10:

E|---------------------------------------------------------------------------------------------------
B|---------11--11-------------11----------------13--11--10-------------------------------------------
G|--10/12----------12--10b12------12r10--8------------------12--11--10--8------8h9-------------------
D|------------------------------------------10-----------------------------10-------10--9--8---------
A|--------------------------------------------------------------------------------------------10--9--
E|---------------------------------------------------------------------------------------------------

Stave 11:

E|----------------------------------------------------------------------------------------------8--
B|-------------------------------------------------------------------------------------------8-----
G|-------------------------------------------------------------10------8--9-------------8h9--------
D|------------------------10--7h8--9--10--10-----10--8--8--10------10--------10--8--10-------------
A|--8--7-----7--8--9--10---------------------------------------------------------------------------
E|--------8----------------------------------------------------------------------------------------

Stave 12:

E|---------------------------------------------------------------12---------------------------
B|--11--10----------------------------------------------------------------------11--13p11h13--
G|----------12--11--10--8------8--10--10b12r10--8------8--10/12------12--11h12----------------
D|-------------------------10----------------------10-----------------------------------------
A|--------------------------------------------------------------------------------------------
E|--------------------------------------------------------------------------------------------

Stave 13:

E|------11--12--13--13b15r13--11------11h13-----------------------------------------
B|--13----------------------------13---------13--11------11--11--11--13p11------13--
G|---------------------------------------------------12---------------------12------
D|----------------------------------------------------------------------------------
A|----------------------------------------------------------------------------------
E|----------------------------------------------------------------------------------

http://www.guitartabcreator.com
Guitar Tab Creator is intended to store guitar tab created through the tool. It currently does not support in-line text editing. Any text you place in here will be lost. If you need to comment on your tab, please use the "Tab Notes" section located below.