Sound will begin in 5 seconds

scarlett solo one

01234567891011121314151617181920212223
E
B
G
D
A
E
B
0 1 2 3 4 5 6 7 8 9 10 11 12 13 14 15 16 17 18 19 20 21 22 23
Song Science #1: How Pros Use 6 Chords to Write Hit Songs
(/) Slide Up  (\) Slide Down  (h) Hammer On  (p) Pull Off  (b) Bend (r) Release (v) Vibrato

Stave 1:

E|--------5-----7--7--7--7--7--6--7--7-----7--7-------------------------
B|--4--5-----8-----------------------------------7-------7--9p7-----10--
G|--------------------------------------------------9p8----------8------
D|----------------------------------------------------------------------
A|----------------------------------------------------------------------
E|----------------------------------------------------------------------

Stave 2:

E|-------------------7-----------7--9--7-------------11--12--14p12p11------11----------------------
B|--10--9--7h9--8h9-----9-----9--------------12--14--------------------14------14--12--------------
G|-------------------------9-----------------------------------------------------------11--13--14--
D|-------------------------------------------------------------------------------------------------
A|-------------------------------------------------------------------------------------------------
E|-------------------------------------------------------------------------------------------------

Stave 3:

E|--9---------7-----------7--------5--------5-------------7--4-----------------5-----------
B|-----10--------9-----------7--------5--------7p5--------------5--------5-----------7--5--
G|---------9--------9--8--------8--------6----------6--4--------------6-----6-----6--------
D|-----------------------------------------------------------------------------------------
A|-----------------------------------------------------------------------------------------
E|-----------------------------------------------------------------------------------------

Stave 4:

E|--7--4--------------------------5-------------------------------------------------------------
B|--------5--7--4-----5--------5-------------------------------7--------------------------------
G|-----------------4--------6--------6-------------4h6p4--4/8-----8--------8--------------------
D|-----------------------7--------------7\6--6-----------------------9--------9--9--------------
A|----------------------------------------------------------------------9-----------9--7--6-----
E|-------------------------------------------------------------------------------------------7--

Stave 5:

E|------------------------------------------------------------------------7--7-----------
B|-----------------------------------------5--5-------7-------------------------7--7--7--
G|--------------8--------------------------------6/8-----8-----------6/8-----------------
D|-----------------9-----6-----6-----6----------------------9----------------------------
A|--6--6--7--9--------------7-----7-----7----------------------9--9----------------------
E|---------------------------------------------------------------------------------------

Stave 6:

E|-----------------7--7--------------------------11---------9--7-----7-----6--5v--7--5--
B|--10--9--10--10--------10--9--10--9--7--7---------------------------------------------
G|-------------------------------------------11------11--9--------8-----7---------------
D|--------------------------------------------------------------------------------------
A|--------------------------------------------------------------------------------------
E|--------------------------------------------------------------------------------------

Stave 7:

E|--4--------------------------------------------------------------------------------------
B|-----5--7-----7--7---------------------------------------10---------12--12--12--9--------
G|-----------4--------8-----8\6-----6-----4-----4-----8/9------9---------------------9-----
D|-----------------------9-------7-----6-----6--------------------11--------------------9--
A|-----------------------------------------------------------------------------------------
E|-----------------------------------------------------------------------------------------

Stave 8:

E|---------------------------------------------------------------------------------11h12p11--9--
B|------------------------------------------------------10------10--12p10------12---------------
G|---------------11p9------9--9--9----------------9/11------11-------------11-------------------
D|--9/11--10h11--------11-----------11--9-------------------------------------------------------
A|-----------------------------------------11---------------------------------------------------
E|----------------------------------------------------------------------------------------------

Stave 9:

E|--12--12--12--12--12--14--14--14p12---------14---------12----------------------------------------------
B|-------------------------------------14b16------16r14------14p12------12--------------------12--14/16--
G|------------------------------------------------------------------13------13------------13-------------
D|------------------------------------------------------------------------------14p13h14-----------------
A|-------------------------------------------------------------------------------------------------------
E|-------------------------------------------------------------------------------------------------------

Stave 10:

E|--14--14--14------14-----------------11----------10--10--9-----9--7-----------7--------------
B|--------------16------16\14--12----------12--------------------------9-----------7-----------
G|---------------------------------11----------10-------------9-----------9-----------8--------
D|---------------------------------------------------------------------------9-----------9/11--
A|---------------------------------------------------------------------------------------------
E|---------------------------------------------------------------------------------------------

Stave 11:

E|------------------------------------------------------------------------------------------
B|--10------10--9---------9------------9-----10---------10--12--12--------------12----------
G|-----------------11--9-----9--11--9------------9------------------13--------------11------
D|------11------------------------------------------11------------------14--13----------13--
A|------------------------------------------------------------------------------------------
E|------------------------------------------------------------------------------------------

Stave 12:

E|-------------------------------------------------------------------------------------------------------
B|-----------10--------------------------------------------------------------12------12--14--16--17--18--
G|--------9------11p9------9---------------------------------11------11--13------13----------------------
D|--9/11---------------11-----11--9---------9--11--9--11/13------13--------------------------------------
A|-----------------------------------9--11---------------------------------------------------------------
E|-------------------------------------------------------------------------------------------------------

Stave 13:

E|--------------------------11-----------------------------------------------------------
B|--16--17--14--16--12--14------12--------------------------12------12--14/16--16p14h16--
G|----------------------------------13------11--13--11--13------13-----------------------
D|--------------------------------------14-----------------------------------------------
A|---------------------------------------------------------------------------------------
E|---------------------------------------------------------------------------------------

Stave 14:

E|------14------16--14------14---------14----------------------14--13--12--12------12---------14--
B|--16------16----------16------15h16------16--14--14--12----------------------14------14/16------
G|---------------------------------------------------------13-------------------------------------
D|------------------------------------------------------------------------------------------------
A|------------------------------------------------------------------------------------------------
E|------------------------------------------------------------------------------------------------

Stave 15:

E|--14--16--15--14------14---------14----------------------------------------------------------
B|------------------16------15h16------16\14--12--14--14-----14--14--14p12h14--12--12----------
G|-------------------------------------------------------------------------------------13--11--
D|---------------------------------------------------------------------------------------------
A|---------------------------------------------------------------------------------------------
E|---------------------------------------------------------------------------------------------

Stave 16:

E|-------------------------------------------------------------------------------------------
B|------------------------------------10--10--9--7--------5--------5--------------5----------
G|--9--11p9-----------------------------------------8--------6--------6--------4-----6--6/8--
D|-----------11--9------9--9--10--11-------------------9--------7--------7--6----------------
A|------------------11-----------------------------------------------------------------------
E|-------------------------------------------------------------------------------------------

Stave 17:

E|-----------------------6--7--7--7--9--11--11--9------9----------------------------------------
B|-----7--------7--7--9----------------------------10-----10--------9--------9--9--10--9--7-----
G|--9-----8--9---------------------------------------------------9-----9--9------------------8--
D|----------------------------------------------------------------------------------------------
A|----------------------------------------------------------------------------------------------
E|----------------------------------------------------------------------------------------------

Stave 18:

E|-------------------------------------------------------------------------------------------------------
B|--7-------------7--7-----7----------9--10--12--10--9------9-----10--7--------------7--------7----------
G|-----8--8--8h9--------8-------------------------------11-----9---------8--------8--------8-----9--8----
D|----------------------------7--7/9----------------------------------------9--9--------9--------------9p
A|-------------------------------------------------------------------------------------------------------
E|-------------------------------------------------------------------------------------------------------

Stave 19:

E|---------------------------------------------------------------------------------------------------
B|-----------10-----10--------9---------7--------5--------5---------------------------------5-----5--
G|--------9------9------11p9-----9--11-----8--------6--------6----------------4----------6-----6-----
D|--9/11--------------------------------------9--------7--------7--6-----5h6--------5/7--------------
A|--------------------------------------------------------------------7------------------------------
E|---------------------------------------------------------------------------------------------------

Stave 20:

E|---------------------------------------------------------------------------------------
B|--9--------7--------5--------5--7/9--9--9--9p7--7--7-----------------------------------
G|-----9--------8--------6------------------------------8--------------------------------
D|--------9--------9--------7---------------------------------------------9-----9--9--7--
A|---------------------------------------------------------------7--6--9-----9-----------
E|---------------------------------------------------------7--9--------------------------

http://www.guitartabcreator.com
Guitar Tab Creator is intended to store guitar tab created through the tool. It currently does not support in-line text editing. Any text you place in here will be lost. If you need to comment on your tab, please use the "Tab Notes" section located below.