Sound will begin in 5 seconds

scarlett begonias**** part 5

01234567891011121314151617181920212223
E
B
G
D
A
E
B
0 1 2 3 4 5 6 7 8 9 10 11 12 13 14 15 16 17 18 19 20 21 22 23
Song Science #1: How Pros Use 6 Chords to Write Hit Songs
(/) Slide Up  (\) Slide Down  (h) Hammer On  (p) Pull Off  (b) Bend (r) Release (v) Vibrato

Stave 1:

E|--------------------------------------------------------------------------------------------------
B|--------------------------------------------------------------------------------------------------
G|----------13--14------13----------13--14------13----------13--14------13----------13--14------13--
D|--16--16----------16------14--16----------16------14--16----------16------14--16----------16------
A|--------------------------------------------------------------------------------------------------
E|--------------------------------------------------------------------------------------------------

Stave 2:

E|----------------------------------------------------------------------------------------------
B|----------------------------------------------------------------------------------------------
G|----------13--14------13----------13--14------13----------13----------13--14------13--14------
D|--14--16----------16------14--16----------16------14--16------14--16----------16----------16--
A|----------------------------------------------------------------------------------------------
E|----------------------------------------------------------------------------------------------

Stave 3:

E|--------------------------------------------------------------------------------------------------
B|--------------14----------------------------------------------------------------------------------
G|--13--14--16------13--14--14--13----------13------------------------------------------------------
D|----------------------------------16--14------16--14--13--16--16--14--13------14--13--------------
A|--------------------------------------------------------------------------16----------16--14--16--
E|--------------------------------------------------------------------------------------------------

Stave 4:

E|----------------------------------------------------------------------------------------
B|----------------------------------------------------------------------------------------
G|-------------------------------------------------------------------------------------6--
D|--13-----------------9\7--7--7p6-----6--7--9--7--6-----7--6-----6-----6--7-----7--9-----
A|------14--16--16------------------9-----------------9--------9-----9--------------------
E|----------------------------------------------------------------------------------------

Stave 5:

E|--5--------------------------------------------------------------------------------------------
B|--------------------------10-------------9-----------------------------------------------------
G|-----8--6-----6-----8--9------11--9--11-----9--11--8--9--11-----8------------------------------
D|-----------9-------------------------------------------------9--------9--11------9--11---------
A|-------------------------------------------------------------------9---------12---------12--9--
E|-----------------------------------------------------------------------------------------------

Stave 6:

E|-----------------------------------------------------------------------11------------------------------
B|------------12-----------------------------------------12----------12------14----------16--14------14--
G|-----9--11-------------------------11------11------11------14------------------14--------------14------
D|--9-------------9-----9-----9--11------11------11--------------14------------------16------------------
A|-------------------9-----9-----------------------------------------------------------------------------
E|-------------------------------------------------------------------------------------------------------

Stave 7:

E|--------------14--16------14--16--17--17--17/19--19--19\17--16--17------16-----------------------
B|--14--16--17----------17--------------------------------------------19------17-----19b21r19--17--
G|-------------------------------------------------------------------------------------------------
D|-------------------------------------------------------------------------------------------------
A|-------------------------------------------------------------------------------------------------
E|-------------------------------------------------------------------------------------------------

Stave 8:

E|------------------------7--7--7--7--7-------------------------------------------------------------
B|--19--19--19b21--19--------------------7--10--9--7-----7-----7------------------------------------
G|----------------------------------------------------9-----8----------------------7h8--------------
D|----------------------------------------------------------------6--7-------7--9-------9-----------
A|----------------------------------------------------------------------8h9----------------9--7--6--
E|--------------------------------------------------------------------------------------------------

Stave 9:

E|-----------------------------------
B|-----------------------------------
G|--------------------------------6--
D|-----------7--6--------6--7--9-----
A|-----6--7--------7--9--------------
E|--7--------------------------------

http://www.guitartabcreator.com
Guitar Tab Creator is intended to store guitar tab created through the tool. It currently does not support in-line text editing. Any text you place in here will be lost. If you need to comment on your tab, please use the "Tab Notes" section located below.