Sound will begin in 5 seconds

scarlett begonias**** part 4

01234567891011121314151617181920212223
E
B
G
D
A
E
B
0 1 2 3 4 5 6 7 8 9 10 11 12 13 14 15 16 17 18 19 20 21 22 23
Song Science #1: How Pros Use 6 Chords to Write Hit Songs
(/) Slide Up  (\) Slide Down  (h) Hammer On  (p) Pull Off  (b) Bend (r) Release (v) Vibrato

Stave 1:

E|---------19--19--19--19--17--17--17--17p16--16--16--16--16--17------16----------16------------------
B|----------------------------------------------------------------19------17--19------17------17--19--
G|--18p16---------------------------------------------------------------------------------18----------
D|----------------------------------------------------------------------------------------------------
A|----------------------------------------------------------------------------------------------------
E|----------------------------------------------------------------------------------------------------

Stave 2:

E|--17--16---------------------------------------------------------------------------------------------
B|----------19--17--17p16------17p16--------------16--17p16--16h17p16------16--------------------------
G|-------------------------16-------------16--18-----------------------18------16--18------16----------
D|------------------------------------19-----------------------------------------------19------18--19--
A|-----------------------------------------------------------------------------------------------------
E|-----------------------------------------------------------------------------------------------------

Stave 3:

E|------------------------------------------------------------------------------------------------
B|---------------------------------------------------------------------16--17--19p17--16------17--
G|--16---------------------------------------------------------16--18---------------------18------
D|----------16--18--19p18--16--18------16----------16--18--19-------------------------------------
A|------19-------------------------19------18--19-------------------------------------------------
E|------------------------------------------------------------------------------------------------

Stave 4:

E|----------------------------------------------------------11--12------11--12--14--16--12--14--16--17--
B|--16--14------16--14--12--14--12------12----------12--14----------14----------------------------------
G|----------16----------------------13------13--14------------------------------------------------------
D|------------------------------------------------------------------------------------------------------
A|------------------------------------------------------------------------------------------------------
E|------------------------------------------------------------------------------------------------------

Stave 5:

E|------16--17--19p17p16--17--16----------16--17--19--21v--19v-----19--17--16--17--16------
B|--19----------------------------17--19-----------------------------------------------19--
G|-----------------------------------------------------------------------------------------
D|-----------------------------------------------------------------------------------------
A|-----------------------------------------------------------------------------------------
E|-----------------------------------------------------------------------------------------

Stave 6:

E|--16--------------------------------------------------------------------------------------------
B|------19--17--19--17--16--19---------17--16----------16--------------11h12--11--9--9------9-----
G|---------------------------------18----------18--16------18--16--14-------------------11-----9--
D|------------------------------------------------------------------------------------------------
A|------------------------------------------------------------------------------------------------
E|------------------------------------------------------------------------------------------------

Stave 7:

E|---------------------------------------------------------------------------------------
B|------9--10--12--10--9------10--9------------------------------------------------------
G|--11--------------------11---------11--9--9p8--8--9--11--9--8----------8--9--8---------
D|---------------------------------------------------------------11--11-----------11--9--
A|---------------------------------------------------------------------------------------
E|---------------------------------------------------------------------------------------

Stave 8:

E|----------------------------------------------------------------------------------------------
B|----------------------------------------------------------------------------------------------
G|---------8------------------6-----------------------------------------------------------------
D|--9--11-----11--9--7--7--9-----9--7--6--6--7--9--7--6--4--4--6--7--6--4--2--2--4--6--4--2-----
A|-------------------------------------------------------------------------------------------5--
E|----------------------------------------------------------------------------------------------

Stave 9:

E|----------------------------------------------------------------------------------------------------
B|-------------------------------------------------------------------------7--9--7--9--10------9--10--
G|-------------------------------------------------------6--7--9---------------------------11---------
D|-----2-----1--2--4--6--7p6--6--------6--7--9--6--7--9-----------6--7--9-----------------------------
A|--5-----2----------------------7--9-----------------------------------------------------------------
E|----------------------------------------------------------------------------------------------------

Stave 10:

E|--9----------9--11----------11--12------11--12--14--14p12p11--12------11----------11--12--13--14--
B|-----10--12---------12--14----------14----------------------------14------12--14------------------
G|--------------------------------------------------------------------------------------------------
D|--------------------------------------------------------------------------------------------------
A|--------------------------------------------------------------------------------------------------
E|--------------------------------------------------------------------------------------------------

Stave 11:

E|--14p12--11--12p11--14--11--14--11--12--14--14--14v-----19v--v--17--16--17--16------16--------------
B|--------------------------------------------------------------------------------19------19--17--19--
G|----------------------------------------------------------------------------------------------------
D|----------------------------------------------------------------------------------------------------
A|----------------------------------------------------------------------------------------------------
E|----------------------------------------------------------------------------------------------------

Stave 12:

E|-------------------------------19--19--19-----19--19--19--17--16--17--16------16--------------
B|--17--16h17p16--16------17------------------------------------------------19------19--17--19--
G|--------------------16------------------------------------------------------------------------
D|----------------------------------------------------------------------------------------------
A|----------------------------------------------------------------------------------------------
E|----------------------------------------------------------------------------------------------

Stave 13:

E|-------------------------------------19--19--19--18--19p18--19p18--19p18--17--16------16---------
B|--17--16--17p16--16------17--16v--------------------------------------------------19---------17--
G|---------------------18--------------------------------------------------------------------------
D|-------------------------------------------------------------------------------------------------
A|-------------------------------------------------------------------------------------------------
E|-------------------------------------------------------------------------------------------------

Stave 14:

E|----------16----------------------------------------------------------16--17------16--17--18--19--
B|--16--19------19b21--21r19--17---------17p16--------------16--17--19----------19------------------
G|--------------------------------18------------18--16----------------------------------------------
D|------------------------------------------------------19------------------------------------------
A|--------------------------------------------------------------------------------------------------
E|--------------------------------------------------------------------------------------------------

Stave 15:

E|--19p18p17p16------------------------------------------------------------------------------------
B|-----------------------16--17--16------16--------------------------------------------------------
G|---------------17--18--------------18------18--18--16----------18p17p16------16------------------
D|-------------------------------------------------------17--18------------18----------16--17--18--
A|---------------------------------------------------------------------------------18--------------
E|-------------------------------------------------------------------------------------------------

Stave 16:

E|-------------------------------------------------16--16------16--17--16--17/19--19\17--16--17------
B|-------------------------------------16--17--19----------19------------------------------------19--
G|--16--18p16--16--18--19--20--21--18----------------------------------------------------------------
D|---------------------------------------------------------------------------------------------------
A|---------------------------------------------------------------------------------------------------
E|---------------------------------------------------------------------------------------------------

Stave 17:

E|--16----------16---------------------------------------------------------------------
B|------17--19------19--17--16--17--19--17--16-----------------------------------------
G|-------------------------------------------------14--16--18--17--16--16--15--14--13--
D|-------------------------------------------------------------------------------------
A|-------------------------------------------------------------------------------------
E|-------------------------------------------------------------------------------------

Stave 18:

E|------------------------------------------------------------------------------------
B|------------------------------------------------------------------------------------
G|--14p13------13----------13-------------13----------13--14----------13--14----------
D|---------16------14--16------14--16---------14--16----------16--16----------16--16--
A|------------------------------------------------------------------------------------
E|------------------------------------------------------------------------------------

Stave 19:

E|-----------------------------------------------------------------------------
B|-----------------------------------------------------------------------------
G|--13--14------13----------13--14--16--13----------13--14---------13----------
D|----------16------14--16------------------14--16----------16---------14--16--
A|-----------------------------------------------------------------------------
E|-----------------------------------------------------------------------------

Stave 20:

E|--
B|--
G|--
D|--
A|--
E|--

http://www.guitartabcreator.com
Guitar Tab Creator is intended to store guitar tab created through the tool. It currently does not support in-line text editing. Any text you place in here will be lost. If you need to comment on your tab, please use the "Tab Notes" section located below.